tablaturas, partituras y acordes para guitarra
Busca por banda/artista:
 
y/o título de la canción:
A B C D E F G H I J K L M N O P Q R S T U V W X Y Z 0 1 2 3 4 5 6 7 8 9 / Top 100 tabs
Categorías
Usuarios
usuario:
Darse de alta
password:
Artistas más visitados
Publicidad
TOP acordes y tablaturas de Deftones


Estás en: Inicio > Letra D > Acordes y tablaturas de Deftones > Please let me get what i want
Please let me get what i want
de Deftones
Puntúa este acorde/tab:      
(0.4/5)
Reportar este acorde/tab
  Añadir a tus favoritos
  Imprimir
Drop Db (D flat/ C #) tuning 
  p= pulloff 
  /= slide 
 
 
   riff 1 
  E------------------------| 
  B------------------------| 
  G--7-77-7-77-------------| 
  D--7-77-7-77--7-77-7-77--| x2 
  A--5-55-5-55--7-77-7-77--| 
  D--0-00-0-00--7-77-7-77--| 
 
  riff 2  
  E-------------------------------| 
  B-------------------------------| 
  G-------------------------------| 
  D-4-44-4-5-55-5-7-77-7-77-5-4---| 
  A-4-44-4-5-55-5-7-77-7-77-5-4---| 
  D-4-44-4-5-55-5-7-77-7-77-5-4---| 
 
  riff 3 
  E------------------------------| 
  B------------------------------| 
  G------------------------------| 
  D-5-55-5-7-77-7-1-0-5---5-5-7-7| 
  A-5-55-5-7-77-7-1-0-5---5-5-7-7| 
  D-5-55-5-7-77-7-1-0-5---5-5-7-7| 
 
  riff 4 
  E---------------------|    |---------------5---- 
  B--3p2-3p2-3/5-3-2----|    |-/7-77-5--3-2----7-- 
  G------------------2--|    |-------------------- 
  D---------------------| x2 |-------------------- 
  A---------------------|    |-------------------- 
  D---------------------|    |-------------------- 
 
  repeat riffs 1, 2, 3, and first part of 4 
 
 
  E----------| 
  B----------| 
  G--7-7-9-9-| 
  D----------| 
  A--5-5-7-7-| 
  D----------| 
 
 
  E--15-14-12--14-15-10--/17---19-21-22-17--14-let-ring----| 
  B--------------------------------------------------------| 
  G--------------------------------------------------------| 
  D--------------------------------------------------------| 
  A--------------------------------------------------------| 
  D--------------------------------------------------------| 
 
  E--------------------------| 
  B--------------------------| 
  G--------------------------| 
  D-4-242-4-242-4-424-4-424--| 
  A-4-242-4-242-4-424-4-424--| 
  D-4-242-4-242-4-424-4-424--| 
 
  E-19-14--21-22--15--14--12-let-ring----------------------| 
  B--------------------------------------------------------| 
  G--------------------------------------------------------| 
  D--------------------------------------------------------| 
  A--------------------------------------------------------| 
  D--------------------------------------------------------|
		   
AcordesyTabs.com © 2008 Acordes y Tablaturas para guitarra. Tabs and Chords for guitar. Aviso Legal - Contacto
El uso de este sitio está sujeto a la aceptación de los términos y condiciones (34 usuarios online)