tablaturas, partituras y acordes para guitarra
Busca por banda/artista:
 
y/o título de la canción:
A B C D E F G H I J K L M N O P Q R S T U V W X Y Z 0 1 2 3 4 5 6 7 8 9 / Top 100 tabs
Categorías
Usuarios
usuario:
Darse de alta
password:
Artistas más visitados
Publicidad
TOP acordes y tablaturas de Deftones


Estás en: Inicio > Letra D > Acordes y tablaturas de Deftones > Right brigade
Right brigade
de Deftones
Puntúa este acorde/tab:      
(0.3/5)
Reportar este acorde/tab
  Añadir a tus favoritos
  Imprimir
Tuning: Standard E 
riff 1 
 
E---------------------------------------- 
B---------------------------------------- 
G---------------------------------------- 
D-5-5-555-5-8-8-888-8--------------------  x2 
A-3-3-333-3-6-6-666-6-5-5-555-55-55-55-55 
E---------------------3-3-333-33-33-33-33 
 
riff 2 
E------------------------------------ 
B------------------------------------ 
G------------------------------------ 
D-55-5555---------4-4-4444-4-44-44--- 
A-33-3333-4-44-44-2-2-2222-2-22-22--- 
E---------2-22-22-------------------- 
 
riff 3 
 
E------------------------------------ 
B------------------------------------ 
G------------------------------------ 
D-9-9-9999-555-444-4-4-4444-4-44-44-- 
A-7-7-7777-333-222-2-2-2222-2-22-22-- 
E------------------------------------ 
 
riff 4 
 
E----------------------------------------- 
B----------------------------------------- 
G----------------------------------------- 
D---------4--4--4------------------------- 
A-4444444444444444-666-777-666-777-66-77-- 
E-2222222222222222-444-555-444-555-44-55-- 
  pm....... .. .. .
		   
AcordesyTabs.com © 2008 Acordes y Tablaturas para guitarra. Tabs and Chords for guitar. Aviso Legal - Contacto
El uso de este sitio está sujeto a la aceptación de los términos y condiciones (24 usuarios online)