tablaturas, partituras y acordes para guitarra
Busca por banda/artista:
 
y/o título de la canción:
A B C D E F G H I J K L M N O P Q R S T U V W X Y Z 0 1 2 3 4 5 6 7 8 9 / Top 100 tabs
Categorías
Usuarios
usuario:
Darse de alta
password:
Artistas más visitados
Publicidad
TOP acordes y tablaturas de Deftones


Venison
de Deftones
Puntúa este acorde/tab:      
(0.2/5)
Reportar este acorde/tab
  Añadir a tus favoritos
  Imprimir
- 
Tabbed by deadmemorywaste
06.06.03

I downloaded this song because I was making a compilation disc of 
unreleased and b-side Deftones songs. I played it thought it was 
amazing but there were NO bass tabs for it anywhere on the
net. All I could find was 1 guitar tab which I used to help me
write this. I've worked hard on it and it sounds perfect to me.

Tuning: D,A,D,G
/ = slide down
 = hammer on

(Guitar intro - bass comes in at 0:07)

Intro slide
G----------|
D----------|
A-55-5/10--|
D----------|

Chorus
G------------------|
D---4--------------|
A-44-555-----------|
D-------442423-----|

End of chorus variation (played once before verse and 2nd chorus)
G------------------|
D---4--------------|
A-44-555-----------|
D-------442424-----|

Verse
(mute these)
G------------------|
D------------------|
A------------------|
D-44-5-555---------|

2nd chorus
G--------------------------------|
D--------------------------------|
A-33-3333-44-44-5-543(2)---------|
D--------------------------------|

2nd chorus part 2
G-------------------------------------------|
D-------------------------------------------|
A-------------------------------------------|
D-4444/10-4444-542-4444/10-4444-542-|

Song stucture:

INTRO SLIDE x 1
CHORUS x 3
END OF CHORUS VARIATION x 1
VERSE x 16
CHORUS x 3
END OF CHORUS VARIATION x 1
VERSE x 16
CHORUS x 3
END OF CHORUS VARIATION x 1
2ND CHORUS PART 1 x 1
2ND CHORUS PART 2 x 1
2ND CHORUS PART 1 x 1
2ND CHORUS PART 2 x 1 
2ND CHORUS PART 1 x 1 (play 2 in brackets)
No bass, just guitar scratching, then..
VERSE x 7
CHORUS x 8
END

At the 8th repetition of the chorus at the very end of the song
play this:

G------------------|
D---4--------------|
A-44-555-----------|
D-------44222------|

This song fuc*ing rocks and the Deftones rule
deadmemorywaste
		   
AcordesyTabs.com © 2008 Acordes y Tablaturas para guitarra. Tabs and Chords for guitar. Aviso Legal - Contacto
El uso de este sitio está sujeto a la aceptación de los términos y condiciones (12 usuarios online)