tablaturas, partituras y acordes para guitarra
Busca por banda/artista:
 
y/o título de la canción:
A B C D E F G H I J K L M N O P Q R S T U V W X Y Z 0 1 2 3 4 5 6 7 8 9 / Top 100 tabs
Categorías
Usuarios
usuario:
Darse de alta
password:
Artistas más visitados
Publicidad
TOP acordes y tablaturas de Deftones


Shove it
de Deftones
Puntúa este acorde/tab:      
(0.3/5)
Reportar este acorde/tab
  Añadir a tus favoritos
  Imprimir
Tuning D,A,D,G

Intro/Verse

G|-----------------------------------|
D|-----------------------------------|	x4
A|-----------------------------------|
D|-----------------------------------|



G|-----------------------------------|
D|-----------------------------------|	x4
A|-----------------------------------|
D|-12-12-12-12-11-11-11-8-8-8-8-8-5/-|

Chorus

G|-----------------------------|
D|-----------------------------|  x4
A|-----------------------------|
D|-0-7-8-0-8-5-0-5-0-5-7-0-8-4-|

Verse

G|-----------------------------------|
D|-----------------------------------|	x4
A|-----------------------------------|
D|-----------------------------------|



G|-----------------------------------|
D|-----------------------------------|	x4
A|-----------------------------------|
D|-12-12-12-12-11-11-11-8-8-8-8-8-5/-|

Chorus

G|-----------------------------|
D|-----------------------------|  x4
A|-----------------------------|
D|-0-7-8-0-8-5-0-5-0-5-7-0-8-4-|

Bridge

G|-----------------|
D|-----------------|	x4
A|-----------------|
D|-8-8-8-8-8-8-8-8-|



G|-------------------------|
D|-------------------------|	
A|-------------------------|
D|-5-5-5-8-0-5-5-5-8-8-0-0-|



G|-----------------|
D|-----------------|	x4
A|-----------------|
D|-8-8-8-8-8-8-8-8-|



G|-------------------------|
D|-------------------------|	
A|-------------------------|
D|-5-5-5-8-0-5-5-5-8-8-0-0-|

Verse

G|-----------------------------------|
D|-----------------------------------|	
A|-----------------------------------|
D|-----------------------------------|



G|-----------------------------------|
D|-----------------------------------|	x8
A|-----------------------------------|
D|-12-12-12-12-11-11-11-8-8-8-8-8-5/-|

Chorus

G|-----------------------------|
D|-----------------------------|  x8
A|-----------------------------|
D|-0-7-8-0-8-5-0-5-0-5-7-0-8-4-|

Bridge

G|-----------------|
D|-----------------|	x4
A|-----------------|
D|-8-8-8-8-8-8-8-8-|



G|-------------------------|
D|-------------------------|	
A|-------------------------|
D|-5-5-5-8-0-5-5-5-8-8-0-0-|



G|-----------------|
D|-----------------|	x4
A|-----------------|
D|-8-8-8-8-8-8-8-8-|



G|-------------------------|
D|-------------------------|	x4
A|-------------------------|
D|-5-5-5-8-0-5-5-5-8-8-0-0-|

Outro/Chorus

G|-----------------------------|
D|-----------------------------|  x4
A|-----------------------------|
D|-0-7-8-0-8-5-0-5-0-5-7-0-8-4-|

Hope you like it, its my first (goofy voice)
		   
AcordesyTabs.com © 2008 Acordes y Tablaturas para guitarra. Tabs and Chords for guitar. Aviso Legal - Contacto
El uso de este sitio está sujeto a la aceptación de los términos y condiciones (37 usuarios online)