tablaturas, partituras y acordes para guitarra
Busca por banda/artista:
 
y/o título de la canción:
A B C D E F G H I J K L M N O P Q R S T U V W X Y Z 0 1 2 3 4 5 6 7 8 9 / Top 100 tabs
Categorías
Usuarios
usuario:
Darse de alta
password:
Artistas más visitados
Publicidad
TOP acordes y tablaturas de Demon hunter


Estás en: Inicio > Letra D > Acordes y tablaturas de Demon hunter > Summer of darkness
Summer of darkness
de Demon hunter
Puntúa este acorde/tab:      
(0.4/5)
Reportar este acorde/tab
  Añadir a tus favoritos
  Imprimir
INTRO: 
|--------------------------------------------------------- 
|--------------------------------------------------------- 
|----------3---------3---------3-------------------------- 
|----00000--2--00000--2--00000--2--0-2h3-2-0-------------- 
|----00000---0-00000---0-00000---0-0-2h3-2-0-------------- 
|----00000-----00000-----00000-----0-2h3-2-0-------------- 
       XXXXX     XXXXX     XXXXX 
Verso; 
|----------------------------------------------------------- 
|----------------------------------------------------------- 
|-------------------------------8---------------------------  
|---000--00-0-0-0--000--000--00--8-7------------------------ 
|---000--00-0-0-0--000--000--00-----5-6--------------------- 
|---000--00-0-0-0--000--000--00----------------------------- 
       
coro: 
|--------------------------------------------------- 
|--------------------------------------------------- 
|--------------------------------------------------- 
|--55555555---33333333------------------------------ 
|--55555555---33333333------------------------------ 
|--55555555---33333333------------------------------ 
 
Coro: 
|--------------------------------------------------------------------------- 
|--------------------------------------------------------------------------- 
|--------------------------------------------------------------------------- 
|--77777777--3-3h5--77777777--10-9--77777777--3-3h5--77777777-3------------- 
|--77777777--3-3h5--77777777--10-9--77777777--3-3h5--77777777-3------------- 
|--77777777--3-3h5--77777777--10-9--77777777--3-3h5--77777777-3------------- 
 
 
|----------------------------------------------------------------------- 
|----------------------------------------------------------------------- 
|---3------3------3--------------------3----------3--------------------- 
|00--2--00--2--00--2--0-2h3-2-0--00000--2---00000--2---00000--0-2h3--2-0 
|00---0-00---0-00---0-0-2h3-2-0--00000---0--00000---0--00000--0-2h3--2-0 
|00-----00-----00-----0-2h3-2-0--00000------00000------00000--0-2h3--2-0 
      
 
riif 
|-------------------------------- 
|-------------------------------- 
|-----3-----1-----10-------------   
|--00--2--0----00---9------------   
|--00-----0----00---------------- 
|--00-----0----00---------------- 
 
Final: 
|------------------------------------- 
|------------------------------------- 
|----3------3--------3----------------   
|-00--2---00--2---00--2---0-2h3-------  
|-00---0--00---0--00---0--0-2h3------- 
|-00------00------00------0-2h3------- 
 
|-------------------------------------------- 
|-------------------------------------------- 
|-----3--------3--------3-------------------- 
|-000--2---000--2---000--2---0-2h3-----------  
|-000---0--000---0--000---0--0-2h3----------- 
|-000------000------000------0-2h3----------- 
                              
 
|---------------------------- 
|---------------------------- 
|---------------------------- 
|---0000--------------------- 
|---0000--------------------- 
|---0000--------------------- 
 
Ramoned7@hotmail.com
		   
AcordesyTabs.com © 2008 Acordes y Tablaturas para guitarra. Tabs and Chords for guitar. Aviso Legal - Contacto
El uso de este sitio está sujeto a la aceptación de los términos y condiciones (37 usuarios online)