tablaturas, partituras y acordes para guitarra
Busca por banda/artista:
 
y/o título de la canción:
A B C D E F G H I J K L M N O P Q R S T U V W X Y Z 0 1 2 3 4 5 6 7 8 9 / Top 100 tabs
Categorías
Usuarios
usuario:
Darse de alta
password:
Artistas más visitados
Publicidad
TOP acordes y tablaturas de Marea


Estás en: Inicio > Letra M > Acordes y tablaturas de Marea > Venas con humo y palabras
Venas con humo y palabras
de Marea
Puntúa este acorde/tab:      
(0.5/5)
Reportar este acorde/tab
  Añadir a tus favoritos
  Imprimir
weno aki va mi segunda transcripccion aunq es una punteo q saké ace muuuuxo
ayudandome en la tab q ay aki, q aunq es muy flojilla me sirvió de ayuda


e|------------------------------------------------------------------------
B|------------------------------------------------------------------------
G|---------5s7-5-------9-9---7-7-7-----------5s7-5-------9-9---12-12-12---
D|--5s7-7---------7-5--7-7---5-5-5----5s7-7---------7-5--7-7---10-10-10---
A|------------------------------------------------------------------------
E|------------------------------------------------------------------------


e|-------8--------------5--------------3-----------
B|---------8----------5---5----------3---3---------
G|---5s7-----7------5-------5------4-------4-------
D|--------------5s7------------3s5-----------3s5---
A|-------------------------------------------------
E|-------------------------------------------------

Luego toca La La Sol Sol Sol (yo lo toco con kintas vosotros sabres
como lo tocais) Y luego va un punteo q se q sta mal pero pa salir
del apuro nos basta, tal q... (tal q es una expresion q no
utilizo nunca pero ay q reconocer q mola un puñao xDDDD)


e|------------------------7-8-------------7-8-----------------
B|-------------------8-10-----8------8-10-----8---10-8-6-5-3--
G|--------5-6-7--7s9-------------7s9--------------------------
D|---5s7--------------------------------------   |___________|
A|--------------------------------------------  se q esta horrible
E|--------------------------------------------  pero es lo q yo ago
                                                ademas no puedo oir
                                                  la cancion i lo
                                         pongo segun mi recuerdo xD


e|-------------------------------------------------------------------
B|---13-12-10---------10-12---         --13-12-10---------10----10---
G|------------12-9-12---------  VARIAS -----------12-9-12----12------
D|----------------------------  VECES  ------------------------------
A|----------------------------         ------------------------------
E|-------------------------------------------------------------------

e|---10s12-12-12-12--12-12-12s10---     Y aquí ya empieza a cantar lo
B|---------------------------------     de la tab q ya ay esta bien
G|---------------------------------     supongo q la mala nota q le an
D|---------------------------------     puesto es por el punteo del
A|---------------------------------     principio xq el resto yo lo
E|---------------------------------     veo bien asi q m lo copio
                                      aunq toco con 3 cuerdas no con 2



Son estas notas le poneis un ritmillo parecido i ala
     A5       F5      D5       G5
e|-------------------------------------------------------------------
B|-------------------------------------------------------------------
G|-----------------------------------5-------------------------------
D|---7---------------3---------------5---------------5---------------
A|---7---------------3---------------3---------------5---------------
E|---5---------------1-------------------------------3---------------
     Si no hay...    para verla...   de cosas...     q la vida es...




a|------------------------------------------------------------
B|------------------------------------------------------------
G|------------------------------------------------------------
D|----------------------7--7--7-7-7-7-3----3-3-3-----------5--
A|----------------------7--7--7-7-7-7-3----3-3-3-----------5--
E|----------------------5--5--5-5-5-5-1----1-1-1-----------3--
 A la altura del perejil
 se han kedado todos mis sueños... blablabla
 con tó lo q e perdido... (355)

Lo e puesto al final de la estrofa, pero al principio tb va
El ultimo 355 se repite muxas veces y m lo aceis con mute


   A#5   D5   F5   G5

e|----------------------
B|----------------------
G|----------------------
D|---8----12---3----5---
A|---8----12---3----5---
E|---6----10---1----3---

Esta parte la ace despues del mute al final del estribillo
cuando dice (A#5)hoy kiero pon(D5)er mi(F5) reino de despojos
en (G5)estos lugares... etc etc etc i al final si os parece
repetis a intro xD si os parece no, acerlo xq lo ace al cantar,
no m pienso kedar ni un momento...


weno pues en esta no se la dedico a nadie ala xD
si kereis ver como suena mas o menos el punteo me grabe tocandolo, esta en:
http://www.youtube.com/watch?v=byK9rozZL8o

ah si el video jaja xD pues se lo dedico a edu xDDD ya vereis xq
		   
AcordesyTabs.com © 2008 Acordes y Tablaturas para guitarra. Tabs and Chords for guitar. Aviso Legal - Contacto
El uso de este sitio está sujeto a la aceptación de los términos y condiciones (34 usuarios online)