tablaturas, partituras y acordes para guitarra
Busca por banda/artista:
 
y/o título de la canción:
A B C D E F G H I J K L M N O P Q R S T U V W X Y Z 0 1 2 3 4 5 6 7 8 9 / Top 100 tabs
Categorías
Usuarios
usuario:
Darse de alta
password:
Artistas más visitados
Publicidad
TOP acordes y tablaturas de Platero y Tú


Estás en: Inicio > Letra P > Acordes y tablaturas de Platero y Tú > Somos los platero
Somos los platero
de Platero y Tú
Puntúa este acorde/tab:      
(0.6/5)
Reportar este acorde/tab
  Añadir a tus favoritos
  Imprimir
Hola a todos!!! bueno aki os dejo esta transquipcion de una de
las mejores canciones de platero y la mas pedida en peticiones xD
Se la dedico a arturito a vinagre a marañon a vidi a pablo y a morzy
para k sigan con sus respectivos instrumentos xD

¡IMPORTANTE!: EL Mi K SE TOCA EN LA CANCION ES EL AGUDO.
 EL DEL SEPTIMO TRASTE Y NO EL DEL SEGUNDO.

    SOL5     riff 1:   LA5  RE5 DO5            LA5 RE5
 ----------    -------5---------------------------------------------
 ----------    -------5---------------------------------------------
 ----------    -------6---7--5---5--------------7--5---5------------ X4  k
 ----------    -------7---7--5-----7--5-----7---7--5-----7--5-------
 ----------    -------7------------------7--7-----------------7-----
 ---3*-----    -------5---------------------------------------------
 (este sol solo se toca la primera vez
y la ultima para finalizar la cancion)

Ahora fito toca las kintas de las estrofas k son:
LA5 RE5 RIFF1,DO5 SOL5 RIFF1 LA5 RE5 RIFFI Y RE5 Mi5 RIFF1.
(El ritmo es facil y se saca facilmete escuxando la cancion)

-el solo es:

   b=bend
   *=se arrastra la cuerda ligeramente acia abajo
   (no se como se llama)
   x=palm mute
   1/2b= medio bend

 -----------------------------------------
 ---------------------8b--7-8-7-5-7-5---5-
 -7b--7-5-7*-5---5-7------------------7---
 --------------7--------------------------
 -----------------------------------------
 -----------------------------------------

 ------------------------------------------
 ---8--5------8-5-7-5----5----------------
 -7b-----7-5----------7-----7-5-7-5-------
 -------------------------------------7-5-7
 ------------------------------------------
 ------------------------------------------

 ----------------      --------------     -----------------
 ----8--5--------      ----8---------     -----------------
 --7b-----7-5---- X2   --7b---7-5---- X2  --7b-5-7*---7-5--
 -------------7--      -----------7--     -----------7-----
 ----------------      --------------     -----------------
 ----------------      --------------     -----------------

 ---17---------------------------------------------------------
 20---17-20b---------------20----20----20----20----------------
 ------------19b-17-19---19b---19b---19b---19b--19b-17-19-19b--
 --------------------------------------------------------------
 --------------------------------------------------------------
 --------------------------------------------------------------

--------------    -22-22(1/2)b-22b--17-----------------------------------
--17-20-17----    ---------------------20-17-20-17---17-------------------
-----------19-X4  ---------------------------------19---19-17-19----------
--------------    -----------------------------------------------19-17-19-
--------------    --------------------------------------------------------
--------------    --------------------------------------------------------


 Como e dixo antes  el ritmo es facilon, si lo escuxais se saca rapido

  LA5                    RE5
 Si andas sin destino y tus zapatos nunca saben donde van (RIFF1)
  DO5                    SOL5
 Y has visto de todo pero nunca te has dejado alucinar. (RIFF1)
  LA5                    RE5
 Eres un vagabundo que hace dedo en la autopista del dolor (RIFF1)
  RE5                    mi5
 Un condenado a muerte que se burla de su propio ejecutor. (RIFF1)

 aora se ace una especia de alto en el camino con un mi7:
  RIFF 2:
 ---7--X--7-7--X-X-X--7-7---  ----------------------------------
 ---8--X--8-8--X-X-X--8-8---  ----------8-----------------------
 ---7--X--7-7--X-X-X--7-7---  ---7-9------7-5-7-5--5-------------
 ---9--X--9-9--X-X-X--9-9---  -------7------------7--7--5----------
 ---7--X--7-7--X-X-X--7-7---  -----------------------------------
 ---7--X--7-7--X-X-X--7-7---  ------------------------------------

 EL RIFF2 OTRA VEZ Y :        ----------------------------------
                              ----------------------------------
                              ---9-10-9-7-------------------------
                              ------------9--6------------------
                              -----------------7------------------
                              ----------------------------------
 LA5                           RE5
 Si eres todo lo que he dicho Te lo puedes pasar bien (RIFF1)
 DO5                        SOL5
 Aquí tienes cuatro amigos Para lo que mande usted. (RIFF1)
 LA5                      RE5
 No hemos inventado nada Tampoco es nuestra intención (RIFF1)
 RE5                  mi5
 Preferimos ante todo Tocar con el corazón.

  RIFF 1 Y 3 COMBIANDOS:

 RIFF1:Solo la mitad y...     RIFF3:
 -------5--------------------  ----------------------------
 -------5--------------------  ----------------------------
 -------6---7--5---5---------  -5--------------------------
 -------7---7--5-----7--5----  ----7-5-7-5----5------------
 -------7------------------7-  -------------7---7--5-7-5---
 -------5--------------------  --------------------------7-

  FA5                                     FA5(FUERTE)
 Somos los Platero, pa' lo bueno y pa' lo malo
  FA5(FUERTE)         RIFF3
 Esto es rock & roll y no somos americanos. (RIFF1)
 FA5                                  FA5(FUERTE)
 Si estas agobiado ven y sube aquí a cantar
  FA5(FUERTE)                 RIFF3
 Bebe siempre lo que puedas, yo hay veces que incluso bebo más. (RIFF1)
  FA5                                           Mi7
 Todo puede salir bien si empiezas a cantar.

 LA5                     RE5
 Si vives en los tejados Tú nos puedes conocer
 DO                          SOL
 Si nunca has soñao despierto No me puedes convencer.
 LA5                           RE5
 Hay que demostrar al mundo Que en Bilbao hay rock & roll
 RE5                       mi5
 Si después bebemos juntos Te prometo otra canción.

-RIFF 1 Y 3 Y ESTRIBILLO OTRA VEZ


AORA VENDRIAN LOS SOLOS LOS CUALES NO TENGO
 Y DESPUES DE ESTO VENDRIA OTRA VEZ EL:
-RIFF 1 Y 3 Y ESTRIBILLO:

Somos los Platero, pa' lo bueno y pa' lo malo...

RIFF1 VARIAS VECES Y ...

Y ACABA COMO EMPIEZA

   SOL5       LA5
 -------------5---
 -------------5---
 -------------6---
 -------------7---
 -------------7---
 ---3---------5---

weno espero k os aya gustado (a mi me suena mui bien)
y k la disfruteis tanto como yo!!
A practicarla y a disfrutar!!!!
dudas y sugerencias a :xixo-minimichel@hotmail.com
		   
AcordesyTabs.com © 2008 Acordes y Tablaturas para guitarra. Tabs and Chords for guitar. Aviso Legal - Contacto
El uso de este sitio está sujeto a la aceptación de los términos y condiciones (15 usuarios online)