tablaturas, partituras y acordes para guitarra
Busca por banda/artista:
 
y/o título de la canción:
A B C D E F G H I J K L M N O P Q R S T U V W X Y Z 0 1 2 3 4 5 6 7 8 9 / Top 100 tabs
Categorías
Usuarios
usuario:
Darse de alta
password:
Artistas más visitados
Publicidad
TOP acordes y tablaturas de Alejandro Fernandez


El Andariego
de Alejandro Fernandez
Puntúa este acorde/tab:      
(0.3/5)
Reportar este acorde/tab
  Añadir a tus favoritos
  Imprimir
Introducción se hace en requinto con capo en segundo traste o en
guitarra con capo en el séptimo traste.

1 ------------------------------0--0---------||
2 ----------0---3-3-2-3-2-3-2-3-1--1--3--1--.||
3 -------1------4-4-3-4-3-4-3-4-------4--2--.||
4 -2-1-2-------------------------------------||

1 ------------------------------0--0---------||
2 ----------0---3-3-2-3-2-3-2-3-1--1--3--1--.||
3 -------1------4-4-3-4-3-4-3-4-------4--2--.||
4 -2-1-2-------------------------------------||

1 ----------0---3-2-3-2-3-2----5-5-5-5-3-1---||
2 --------2-----5-4-5-4-5-4----5-5-5-5-5-3---||
3 --2-1-2------------------------------------||
4 -------------------------------------------||

1--0-1--0-------0-----------------------0-5--||
2-3----3----1-3--1-3-------0----------1---5--||
3----------------------1-2---1-2--1-2--------||
4--------------------------------------------||

Am              A7          Dm
Yo que fui del amor ave de paso
G7                              C   C7
yo que fui mariposa de mil flores
F                               E7
hoy siento la nostalgia de tus brazos
                  F  B7                  E7
de aquellos tus ojazos de aquellos tus amores
Am            A7           Dm    G7
ni cadenas ni lagrimas me ataron mas hoy siento
                 C   C7 F
la calma y el sosiego  perdona mi tardanza
       E7                   F
te lo ruego perdona al andariego que hoy
     E7           Am
te ofrece el corazón.

Dm                  G7           C
Hay ausencias que triunfan y la nuestra triunfo
          E7
amémonos ahora con la paz que en otros
Am                               Dm
tiempos nos falto y cuando yo me muera ni luz
   G7         C           A7
ni llanto ni luto ni nada mas,
                Dm G7                 C
ahí junto a mi cruz  tan solo quiero paz

     E7               Am
Solo tu corazón si recuerdas mi amor
Dm          G7           C      A7
una lágrima llévame por última vez
        Dm        G7         C
y en silencio dirás una plegaria
      E7                Am
y por Dios olvídame después.


1 ------------------------------0--0---------||
2 ----------0---3-3-2-3-2-3-2-3-1--1--3--1--.||
3 -------1------4-4-3-4-3-4-3-4-------4--2--.||
4 -2-1-2-------------------------------------||

1 ------------------------------0--0---------||
2 ----------0---3-3-2-3-2-3-2-3-1--1--3--1--.||
3 -------1------4-4-3-4-3-4-3-4-------4--2--.||
4 -2-1-2-------------------------------------||

1 ----------0---3-2-3-2-3-2----5-5-5-5-3-1---||
2 --------2-----5-4-5-4-5-4----5-5-5-5-5-3---||
3 --2-1-2------------------------------------||
4 -------------------------------------------||

1----0-1-0-----------------------------------||
2--2-------3-1-0-----------------------------||
3----------------2-1-----------------2-------||
4--------------------3-2-0---------2---------||
5--------------------------3-2-0-3-----------||

1--0-0-4-0-0-7-0-0-4-0-0-7-0-0-5-0-0-8-0-0---||
2--5-5-5-5-5-5-5-5-5-5-5-5-5-5-5-5-5-5-5-5---||
3--------------------------------------------||
4--------------------------------------------||

1--5-0-0-8-0-0-4-0-0-7-0-0-4-0-0-7-0-0-5-----||
2--5-5-5-5-5-5-5-5-5-5-5-5-5-5-5-5-5-5-5-----||
3--------------------------------------------||
4--------------------------------------------||

1--0-1-2-3-2-3-2-3-2-5-5-5-5-3-1-------------||
2--2-3-4-5-4-5-4-5-4-5-5-5-5-5-3-------------||
3--------------------------------------------||
4--------------------------------------------||

1--0-1--0-------0-----------------------0-5--||
2-3----3----1-3--1-3-------0----------1---5--||
3----------------------1-2---1-2--1-2--------||
4--------------------------------------------||

Dm                  G7           C
Hay ausencias que triunfan y la nuestra triunfo
          E7
amémonos ahora con la paz que en otros
Am                               Dm
tiempos nos falto y cuando yo me muera ni luz
   G7         C           A7
ni llanto ni luto ni nada mas,
                Dm G7                 C
ahí junto a mi cruz  tan solo quiero paz

     E7               Am
Solo tu corazón si recuerdas mi amor
Dm          G7           C      A7
una lágrima llévame por última vez
        Dm        G7         C
y en silencio dirás una plegaria
      E7                Am
y por Dios olvídame después.
		   
AcordesyTabs.com © 2008 Acordes y Tablaturas para guitarra. Tabs and Chords for guitar. Aviso Legal - Contacto
El uso de este sitio está sujeto a la aceptación de los términos y condiciones (33 usuarios online)