tablaturas, partituras y acordes para guitarra
Busca por banda/artista:
 
y/o título de la canción:
A B C D E F G H I J K L M N O P Q R S T U V W X Y Z 0 1 2 3 4 5 6 7 8 9 / Top 100 tabs
Categorías
Usuarios
usuario:
Darse de alta
password:
Artistas más visitados
Publicidad
TOP acordes y tablaturas de Alejandro Fernandez


Para vivir
de Alejandro Fernandez
Puntúa este acorde/tab:      
(0.8/5)
Reportar este acorde/tab
  Añadir a tus favoritos
  Imprimir
Intro: D# - Bb - Cm - Gm - G# - G


e|------6----------------------6--------6/8-6/------
B|--------9-8--------------------9-8-----------------
G|----8-------8--------------8--------8--------------
D|--8-----------8/10-8.--6/8-------------------------
A|---------------------------------------------------
E|---------------------------------------------------

e|---------------------------------------------------|
B|---------------------------------------------------|
G|----8-9----10/12-10-10.../8---------8-9----12...---|
D|-10-----10------------------10.--10-----10---------|
A|---------------------------------------------------|
E|---------------------------------------------------|

    C
 Que difícil es
              F
 Refugiarse del dolor
      G            G7           C       E
 Cuando se muere cada noche de desamor
          Am
 que difícil es
                D/A
 Dibujar ausencias  de ti
     F                             G
 Saliendo con las sombras de ese tiempo feliz

     C
 Que difícil es
            F
 Escapar a mi soledad
       G         Em          Am
 Ya a tantas ilusiones que no volverán
          F        G
 Solo huellas del ayer
             Em     Am
 Solo trazos de un querer
    F
 Al verte tan lejana y fría
        G1-G/C-G
 Se muere el alma mía


          C
 Para olvidar me falta tiempo
           F
 Para llorar me sobra vida
         Dm               G
 Y no habrá dolor mas grande
             C         Em
 Que no volverte a ver
         Am
 Para esperar me falta fuerza
          D
 Para intentar me sobra fe
         F
 Y se escapa de mis manos
          G
 La mujer que tanto ame
          C
 Para volver me sobran ganas
          F
 Para aceptar me falta el alma
            Dm             G
 Y se escapa entre las sombras
              Am
 Quien me diera su luz
        D             F
 Me queda tanto para darte
         Em         Am
 Mi corazón mi juventud
       F                         G
 Pero a pesar de lo que tengo
                      C
 Para vivir me faltas tu


         C
 Que difícil es
               F
 Aceptar que ya no estarás
          G           Em           Am
 Y que duele en el desierto de mi soledad
      F            G
 Solo huellas del ayer
            Em       Am
 Solo trazos de un querer
      F
 Al verte tan lejana y fría
       G1-G/C-G
 Se muere el alma mía

 Coro

Final: C - F - Am - Em - F - G - C

e|-------------------------------------------3/5-5--|
B|-------8-6/8/6-5---------------8-6/8/6-5----------|
G|-----5-----------8-----------5-----------8--------|
D|---5---------------5/7-5---5----------------------|
A|--------------------------------------------------|
E|--------------------------------------------------|



G1 = 000023
G/C = 010023
		   
AcordesyTabs.com © 2008 Acordes y Tablaturas para guitarra. Tabs and Chords for guitar. Aviso Legal - Contacto
El uso de este sitio está sujeto a la aceptación de los términos y condiciones (40 usuarios online)