tablaturas, partituras y acordes para guitarra
Busca por banda/artista:
 
y/o título de la canción:
A B C D E F G H I J K L M N O P Q R S T U V W X Y Z 0 1 2 3 4 5 6 7 8 9 / Top 100 tabs
Categorías
Usuarios
usuario:
Darse de alta
password:
Artistas más visitados
Publicidad
TOP acordes y tablaturas de Pearl Jam


Estás en: Inicio > Letra P > Acordes y tablaturas de Pearl Jam > Do The Evolution
Do The Evolution
de Pearl Jam
Puntúa este acorde/tab:      
(0.2/5)
Reportar este acorde/tab
  Añadir a tus favoritos
  Imprimir
Song: Do the Evolution
Artist: Pearl Jam

I decided to put this on here because I was going crazy at how off the other one
watched Stone himself play it concert and this is the way he plays it  

This is the main riff through out the song

------------------------------------------------------------------
---------------------------8------------------------ 8--------
---0-----------------------8-------0----------------8--------
---0-----------------------8-------0----------------8--------
---x--8-----8--9--8--9------------x---8-9-8-9------------
--10------------------------------10-----------------------------


This is the Chorus

------------------------
------------------------
--3-----2------1-----------
--3-----2------1-------
--3-----2------1-------
------------------------


Then Stone’s little part

-------------------------------------------------------------
----------------------------------------------3---3------------Repeat untill Cho
----------------------------------------------2---2------------                 
-0-3-00-0-3-00-0 2 0-2------------3--0-------------------             
--------------------------3---0-2-3-------------------------
-------------------------------------------------------------


Alright, thats pretty much it.  I’m not a lead guitarist so i cant figure out th
be too hard to figure out.  So good luck and enjoy


-- Josh “The Nuge” Nugent
		   
AcordesyTabs.com © 2008 Acordes y Tablaturas para guitarra. Tabs and Chords for guitar. Aviso Legal - Contacto
El uso de este sitio está sujeto a la aceptación de los términos y condiciones (13 usuarios online)