tablaturas, partituras y acordes para guitarra
Busca por banda/artista:
 
y/o título de la canción:
A B C D E F G H I J K L M N O P Q R S T U V W X Y Z 0 1 2 3 4 5 6 7 8 9 / Top 100 tabs
Categorías
Usuarios
usuario:
Darse de alta
password:
Artistas más visitados
Publicidad
TOP acordes y tablaturas de Dimmu borgir


Estás en: Inicio > Letra D > Acordes y tablaturas de Dimmu borgir > A succubus in rapture
A succubus in rapture
de Dimmu borgir
Puntúa este acorde/tab:      
(0.3/5)
Reportar este acorde/tab
  Añadir a tus favoritos
  Imprimir
H:hammer on   :Slide down   .:Palm mute 
/:slide up    P:pull off 
 
Riff A (Is played under solo 4 times) 
------------------------- 
-----------------------6- 
-----5-----2------------- 
---7-----2-------5---7--- 
-0-----5-------7---5----- 
-------------8----------- 
 
Riff B (is played after Riff A until end of 
solo then the song fades away with Riff A) 
---------0------------- 
-6-6-5-3---3-------0--- 
-------------5-4-2---2- 
----------------------- 
----------------------- 
----------------------- 
 
Solo 
------------------------------------------- 
-------------------15-13------------------- 
-14-14-16-17-16-17-------16H17P16-14-16
- 
------------------------------------------- 
------------------------------------------- 
------------------------------------------- 
 
------------------------------------------- 
------------------------------------------- 
-14/16-14----------------------------12-14- 
----------14-12-14-15-14-12-14-12-14------- 
------------------------------------------- 
------------------------------------------- 
 
------------------------------------------- 
-12H13P12----12-13-12H13P12----12-13-12---- 
----------14----------------14------------- 
----------------------------------------14- 
------------------------------------------- 
------------------------------------------- 
 
------------------------------------------- 
-----12H13P12----12/13-12-12P10----10--- 
-12--------------------------------12----12 
--------------14--------------------------- 
------------------------------------------- 
------------------------------------------- 
 
------------------------------------------= 
------------------------------------------- 
-/14----14--------------------------------- 
-----15----14-15-12-14----12----------7---- 
-----------------------15----14-15-12---10- 
------------------------------------------- 
                                         . . 
-------------------------------------------- 
-------------------------------------------- 
-------------------------------------------- 
--------------------------7----------------- 
-8-7----------------7-8-7---7--------0------ 
-----10-8-7H8-10-10-----------10-8-7---8-5H8 
 
 
 
 
 
 
 . . . . 
-------------------------5-7-8-7H8P7P5-5H7P5 
-------------------5-8-8-------------------- 
-------------4-5-7-------------------------- 
-----5H7-5-7-------------------------------- 
-5H7---------------------------------------- 
-------------------------------------------- 
 
--5---5-7-8-7-5-5H7P5-5----------------- 
------5----------------------------------8H- 
----------------------------------9H10P9---- 
----------------------------7H9P7----------- 
-------------------------------------------- 
-------------------------------------------- 
 
------7H8p7-----------------7----7-8-7H8P7-- 
-10P8-------10-8-------8-10---10------------ 
-----------------9-9-9---------------------- 
-------------------------------------------- 
-------------------------------------------- 
-------------------------------------------- 
 
----7---12H13P12P10-12----(12)P10----------- 
-10---8----------------13--------12-13------ 
---------------------------------------12-12 
-------------------------------------------- 
-------------------------------------------- 
-------------------------------------------- 
 
-------------------------------------------- 
-------------------------------------------- 
-/14---------------------------------------- 
-------------------------------------------- 
-------------------------------------------- 
-------------------------------------------- 
End of solo and Riff B
		   
AcordesyTabs.com © 2008 Acordes y Tablaturas para guitarra. Tabs and Chords for guitar. Aviso Legal - Contacto
El uso de este sitio está sujeto a la aceptación de los términos y condiciones (29 usuarios online)