tablaturas, partituras y acordes para guitarra
Busca por banda/artista:
 
y/o título de la canción:
A B C D E F G H I J K L M N O P Q R S T U V W X Y Z 0 1 2 3 4 5 6 7 8 9 / Top 100 tabs
Categorías
Usuarios
usuario:
Darse de alta
password:
Artistas más visitados
Publicidad
TOP acordes y tablaturas de Pearl Jam


Evacuation
de Pearl Jam
Puntúa este acorde/tab:      
(0.3/5)
Reportar este acorde/tab
  Añadir a tus favoritos
  Imprimir
#----------------------------------PLEASE NOTE--------------------------------#
#This file is the author's own work and represents their interpretation of the#
#song. You may only use this file for private study, scholarship, or research.#
#-----------------------------------------------------------------------------#
#-- File created with Instab - http://www.pconline.com/~smcarey/instab.html --#
#-----------------------------------------------------------------------------#

Author/Artist: Pearl Jam
Title: Evacuation
Album: Binaural
Transcribed by: Rick S.
Email: ricksloukji@hotmail.com

Nice song by Matt.

------------------------------------------------------------------------------
------------------------------------------------------------------------------
------------------------------------------------------------------------------
-77--999--77--999--77--999--77--999-------------------------------------------
-66--999--66--999--66--999--66--999---55-77-----------------------------------
-77--777--77--777--77--777--77--777---33-55-----------------------------------
 Intro,Pre-Chorus                                                             

------------------------------------------------------------------------------
------------------------------------------------------------------------------
------------------------------------------------------------------------------
-----------------------8------------------------------------------------------
---5---5---6---6---7---6-7----------------------------------------------------
-7---7---7---7---7---7---5----------------------------------------------------
 Verse                                                                        

------------------------------------------------------------------------------
-8-755-5-7-3-3-5-7------------------------------------------------------------
-7-777-7-7-5-----7------------------------------------------------------------
------------------------------------------------------------------------------
------------------------------------------------------------------------------
------------------------------------------------------------------------------
  Bridge                                                                      

------------------------------------------------------------------------------
------------------------------------------------------------------------------
---------6-7------------------------------------------------------------------
-9999--2-6-7------------------------------------------------------------------
-9999--2-4/5------------------------------------------------------------------
-7777--0----------------------------------------------------------------------
 Chorus                                                                       

		   
AcordesyTabs.com © 2008 Acordes y Tablaturas para guitarra. Tabs and Chords for guitar. Aviso Legal - Contacto
El uso de este sitio está sujeto a la aceptación de los términos y condiciones (27 usuarios online)