tablaturas, partituras y acordes para guitarra
Busca por banda/artista:
 
y/o título de la canción:
A B C D E F G H I J K L M N O P Q R S T U V W X Y Z 0 1 2 3 4 5 6 7 8 9 / Top 100 tabs
Categorías
Usuarios
usuario:
Darse de alta
password:
Artistas más visitados
Publicidad
TOP acordes y tablaturas de Dire straits


Estás en: Inicio > Letra D > Acordes y tablaturas de Dire straits > Money for nuthing
Money for nuthing
de Dire straits
Puntúa este acorde/tab:      
(0.5/5)
Reportar este acorde/tab
  Añadir a tus favoritos
  Imprimir
Tabbed By Nick Morales 
 
h - hammer on  
p - pull off  
/ - slide up 
 - slide down 
 
E|-----------------------------------------------| --| 
B|-----------6-----------------------------------|   | 
G|---7-7p5-7---7p5-5-3-0--3--3-3-0-3-5-0---|   | 
D|---5-5---5---5---5-3-0--3--3-3-0-3-5-0---|   | 
A|-----------------------------------------------|   | 
E|-----------------------------------------------|   | 
                                                     | x2 
E|-----------------------------------------------|   | 
B|---------------8-------------------------------|   | 
G|---7-7p5---5h7---7-7p5-----0h5--3--3-0-------|   | 
D|---5-5---8-------------8p5-0h5--3--3-0-3-5-|   | 
A|-----------------------------------------------|   | 
E|-----------------------------------------------| --| 
 
E|-----------------------------------------------| --| 
B|----------6------------------------------------|   | 
G|---7~-5h7---7p5-5/3-0--0--3-0-3-5-0------|   | 
D|---5~-5-----5---5/3-0--0--3-0-3-5-0------|   | 
A|-----------------------------------------------|   | 
E|-----------------------------------------------|   | 
                                                     | x2 
E|-----------------------------------------------|   | 
B|----------6------------------------------------|   | 
G|---7~-5h7---7p5-5/3-0--0--3-0----------------|   | 
D|---5~-5-----5---5/3-0--0--3-0-3-5~~--------|   | 
A|-----------------------------------------------|   | 
E|-----------------------------------------------| --| 
 
E|-----------------------------------------------| --| 
B|-----------------------------------------------|   | 
G|---3----3-3--3-3-3-3------3----3-3-3-5-5-5---|   | 
D|---1--1-1-1--3-3-3-3p1----1--1-1-1-1-3-3-3---|   | 
A|-----------------------------------------------|   | 
E|-----------------------------------------------|   | 
                                                     | x1 
E|-----------------------------------------------|   | 
B|-----------------------------------------------|   | 
G|-----7-7--7----7-5--5----5-5-5-7-79~-9h11-|   | 
D|---5-5-5--5--5-5-5--5--5-5-5-5-7-79~-9h11-|   | 
A|-----------------------------------------------|   | 
E|-----------------------------------------------| --| 
 
E|-----------------------------------------------| --| 
B|-----------6-----------------------------------|   | 
G|---7-7p5-7---7p5-5-3-0--3--3-3-0-3-5-0---|   | 
D|---5-5---5---5---5-3-0--3--3-3-0-3-5-0---|   | 
A|-----------------------------------------------|   | 
E|-----------------------------------------------|   | 
                                                     | x1 
E|-----------------------------------------------|   | 
B|---------------8-------------------------------|   | 
G|---7-7p5---5h7---7-7p5-----0h5--3--3-0-------|   | 
D|---5-5---8-------------8p5-0h5--3--3-0-3-5-|   | 
A|-----------------------------------------------|   | 
E|-----------------------------------------------| --| 
 
E|-----------------------------------------------| --| 
B|-----------------------------------------------|   | 
G|---3----3-3--3-3-3-3------3----3-3-3-5-5-5---|   | 
D|---1--1-1-1--3-3-3-3p1----1--1-1-1-1-3-3-3---|   | 
A|-----------------------------------------------|   | 
E|-----------------------------------------------|   | 
                                                     | x1 
E|-----------------------------------------------|   | 
B|-----------------------------------------------|   | 
G|-----7-7--7----7-5--5----5-5-5-7-79~-9h11-|   | 
D|---5-5-5--5--5-5-5--5--5-5-5-5-7-79~-9h11-|   | 
A|-----------------------------------------------|   | 
E|-----------------------------------------------| --| 
 
E|-----------------------------------------------| --| 
B|----------6------------------------------------|   | 
G|---7~-5h7---7p5-5/3-0--0--3-0-3-5-0------|   | 
D|---5~-5-----5---5/3-0--0--3-0-3-5-0------|   | 
A|-----------------------------------------------|   | 
E|-----------------------------------------------|   | 
                                                     | x1 
E|-----------------------------------------------|   | 
B|----------6------------------------------------|   | 
G|---7~-5h7---7p5-5/3-0--0--3-0----------------|   | 
D|---5~-5-----5---5/3-0--0--3-0-3-5~~--------|   | 
A|-----------------------------------------------|   | 
E|-----------------------------------------------| --| 
 
E|-----------------------------------------------| --| 
B|-----------------------------------------------|   | 
G|---3----3-3--3-3-3-3------3----3-3-3-5-5-5---|   | 
D|---1--1-1-1--3-3-3-3p1----1--1-1-1-1-3-3-3---|   | 
A|-----------------------------------------------|   | 
E|-----------------------------------------------|   | 
                                                     | x1 
E|-----------------------------------------------|   | 
B|-----------------------------------------------|   | 
G|-----7-7--7----7-5--5----5-5-5-7-79~-9h11-|   | 
D|---5-5-5--5--5-5-5--5--5-5-5-5-7-79~-9h11-|   | 
A|-----------------------------------------------|   | 
E|-----------------------------------------------| --| 
 
E|-----------------------------------------------| --| 
B|-----------6-----------------------------------|   | 
G|---7-7p5-7---7p5-5-3-0--3--3-3-0-3-5-0---|   | 
D|---5-5---5---5---5-3-0--3--3-3-0-3-5-0---|   | 
A|-----------------------------------------------|   | 
E|-----------------------------------------------|   | 
                                                     | x1 
E|-----------------------------------------------|   | 
B|---------------8-------------------------------|   | 
G|---7-7p5---5h7---7-7p5-----0h5--3--3-0-------|   | 
D|---5-5---8-------------8p5-0h5--3--3-0-3-5-|   | 
A|-----------------------------------------------|   | 
E|-----------------------------------------------| --| 
 
E|-----------------------------------------------| --| 
B|----------6------------------------------------|   | 
G|---7~-5h7---7p5-5/3-0--0--3-0-3-5-0------|   | 
D|---5~-5-----5---5/3-0--0--3-0-3-5-0------|   | 
A|-----------------------------------------------|   | 
E|-----------------------------------------------|   | 
                                                     | x1 
E|-----------------------------------------------|   | 
B|----------6------------------------------------|   | 
G|---7~-5h7---7p5-5/3-0--0--3-0----------------|   | 
D|---5~-5-----5---5/3-0--0--3-0-3-5~~--------|   | 
A|-----------------------------------------------|   | 
E|-----------------------------------------------| --| 
 
E|-----------------------------------------------| --| 
B|-----------6-----------------------------------|   | 
G|---7-7p5-7---7p5-5-3-0--3b5r3p0-3b5r3p0--------|   | x3 
D|---5-5---5---5---5-3-0--3b5r3p0-3b5r3p0--3-5-|   | 
A|-----------------------------------------------|   | 
E|-----------------------------------------------| --| 
 
Now look at them yo-yo's that's the way you do it 
You play the guitar on the MTV 
That ain't workin' that's the way you do it 
Money for nothin' and chicks for free 
Now that ain't workin' that's the way you do it 
Lemme tell ya them guys ain't dumb 
Maybe get a blister on your little finger 
Maybe get a blister on your thumb 
We gotta install microwave ovens 
Custom kitchen deliveries 
We gotta move these refrigerators 
We gotta move these colour TV's 
See the little faggot with the earring and the makeup 
Yeah buddy that's his own hair 
That little faggot got his own jet airplane 
That little faggot he's a millionaire 
We gotta install microwave ovens 
Custom kitchens deliveries 
We gotta move these refrigerators 
We gotta move these colour TV's 
I shoulda learned to play the guitar 
I shoulda learned to play them drums 
Look at that mama, she got it stickin' in the camera 
Man we could have some fun 
And he's up there, what's that? Hawaiian noises? 
Bangin' on the bongoes like a chimpanzee 
That ain't workin' that's the way you do it 
Get your money for nothin' get your chicks for free 
We gotta install microwave ovens 
Custom kitchen deliveries 
We gotta move these refrigerators 
We gotta move these colour TV's, Lord 
Now that ain't workin' that's the way you do it 
You play the guitar on the MTV 
That ain't workin' that's the way you do it 
Money for nothin' and your chicks for free 
Money for nothin' and chicks for free
		   
AcordesyTabs.com © 2008 Acordes y Tablaturas para guitarra. Tabs and Chords for guitar. Aviso Legal - Contacto
El uso de este sitio está sujeto a la aceptación de los términos y condiciones (30 usuarios online)