tablaturas, partituras y acordes para guitarra
Busca por banda/artista:
 
y/o título de la canción:
A B C D E F G H I J K L M N O P Q R S T U V W X Y Z 0 1 2 3 4 5 6 7 8 9 / Top 100 tabs
Categorías
Usuarios
usuario:
Darse de alta
password:
Artistas más visitados
Publicidad
TOP acordes y tablaturas de Mago De Oz


Estás en: Inicio > Letra M > Acordes y tablaturas de Mago De Oz > Mujer Amante
Mujer Amante
de Mago De Oz
Puntúa este acorde/tab:      
(0.2/5)
Reportar este acorde/tab
  Añadir a tus favoritos
  Imprimir
Tablatura: Mujer Amante
banda: Mago de Oz
Album: Belfast
Autor: Rata Blanca (Giardino/Barilari)
Tab: Dennis (HIM)
e-mail: iamyostforyu@hotmail.com

Bueno gente, esta es la version de Mujer Amante que hizo mago a la rola original de rata blanca,
ya habia tabulado la version de rata anteriormente, osea que si
la quieren la enuentran el la pagina oficial de Rata, esta version esta en Am y esta muy facil

Disfrutad de esta gran rola de unos grandes maestros original de otros grandes maestros


Simbologia de la tab

→ quiere decir que hay que sostener la nota
~ esto es un vibrato
bu es un bending o estirada
bd es soltar el bending
h es un hammer
p es un pull off
ssss tambien es para sostener la nota
vv tambien es vibrato
(14) nota muerta

Intro de violin

e:----------------------------------------------------------
B:----------------------------------------------------------
G:----------------------------------------------------------
D:----------------------------------------------------------
A:-------------5-------------------2---5-----------------5--
E:-(5-5-7-5-8-5--5)-x2----3-3-5--3---3---3---5-5-7-5-8-5---5-

se sigue repitiendo y entra la flauta

flauta
e:---------------------------------------------
B:-----10-10-10-12-13-15-8-8-8-10-12-13v-12vv--
G:-9-9-----------------------------------------
D:---------------------------------------------
A:---------------------------------------------
E:---------------------------------------------

e:-----------------------------------------
B:-----10-10-10-12-13-15-8-8-8-10-12-13vvv-
G:-9-9-------------------------------------
D:-----------------------------------------
A:-----------------------------------------
E:-----------------------------------------

e:-12-12-13-12-15-13-12-------------------------
B:----------------------15-13-12-12-13-15-15-13-
G:----------------------------------------------
D:----------------------------------------------
A:----------------------------------------------
E:----------------------------------------------

e:-12-12-13-12-15-13-12----------------------
B:----------------------15-13-12-12----------
G:----------------------------------14-12-14-
D:-------------------------------------------
A:-------------------------------------------
E:-------------------------------------------
                                           | aqui entra la lira con distorcion

Intro de Guitarra
   A  G  E
e:---------
B:---------
G:---------
D:-7--5--2-
A:-7--5--2-
E:-5--3--0-

Bueno aca cada nota se deja sonar un rato y para la ultima se usa compresor para
darle ese sonido como en el disco
e:--------------------------------
B:--------------------------------
G:--------------------------------
D:--------------------------------
A:-0---3---7---5---8---7ssssssss--
E:--------------------------------

e:---------------------------
B:---------------------------
G:---------------------------
D:---------------------------
A:-0---3---7---5-------------
E:-----------------3---5sss--

Ahora los acordes en limpio, para que se oiga mejor yo arpegeo los acordes
con un poco de chorus y eco, pero eso es cuestion de gustos porque a mi
me gusta darle un sonido diferente.

Entonces la letra va asi:


Am                  F                    G
Siento el calor, de toda tu piel, en mi cuerpo otra vez,
    Am                  F       D           G
estrella fugaz, que enciende mi ser, misteriosa mujer,
         F                     Am  (pequeño riff con distor en lam)
por tu amor sensual, cuanto me das,
            G      Dm   Am
haz que mi sueño, sea, una verdad
      F                        G
dame tu alma hoy, hacia el ritual,
            G      Dm     Em
llevame al mundo, donde, pueda soñar.


CORO

Aqui los acordes son en quintas y con distorsion

A    D                G                A
Uh, debo saber si es verdad, en algun lado estas,
A              D      G          A
voy a buscar, una señal, una cancion....

A    D                G                A
Uh, debo saber si es verdad, en algun lado estas,
A              D         G            A  G  F
solo el amor, que tu me das, me ayudaraaa

bueno el siguiente verso lleva los mismos acordes y me quise evitar
la fatiga de escribir los otra vez

Al amanecer tu imagen se va misteriosa mujer
Dejaste en mi lujuria total hermosa y sensual
Corazon sin Dios, dame un lugar
En ese mundo tibio casi real
Debere buscar una señal
En aquel camino por el que vas

Coro otra vez

Ahora viene el solo, no esta muy dificil.


e:-------------------------------------------------
B:-------------------------------------------------
G:-9→---12--9--7-5---5-7bu9bd7-5-----5-------------
D:-----------------7-------------7~----7-5---------
A:-----------------------------------------7-5-----
E:---------------------------------------------5~~-
                                     |------------|
                                  esto se toca mas suave

e:-------------------------------------------------
B:-------------------------------------------------
G:-//14~~-12p10h12-10p9h10-9p7h9-7-5-7bu9bd7-5~~---
D:-------------------------------------------------
A:-------------------------------------------------
E:-------------------------------------------------

e:----------17→-17-17-17-15-12-12--------------------17-----------------------------
B:-----(17)-----------------------15p13h15-13-15bu17----15bu17-17-17-17-17p15-13----
G:-(14)--------------------------------------------------------------------------14-
D:----------------------------------------------------------------------------------
A:----------------------------------------------------------------------------------
E:----------------------------------------------------------------------------------

e:-//20-19-17----------------------------------
B:------------18p17--------------------17-17~~-
G:------------------(17-19~~)x2--17h19---------
D:---------------------------------------------
A:---------------------------------------------
E:---------------------------------------------

bueno, lo que viene no se si es un tapping o una escala, lo que sea, no se que es
si alguien sabe que es y como se toca, sera bien recibido por su servidor porque
me gustaria tocarlo como es pero mi oido no da para tanto, asi que mejor sigo con
el resto de la rola

e:---------
B:---------
G:-14~~~~--
D:---------
A:---------
E:---------~

en esta nota termina el solo es lo unico que se

verso 3

F                                Am
Tu presencia marco en mi vida el amor

lo se
G          Dm                     Em
Es dificil pensar en vivir ya sin tii

esto va con el piano pero se oye muy bien
si se tocan los acordes en la lira, de
preferencia arpegiados

F
Corazon sin Dios
           Am
Dame un lugaaaar
       G
En ese mundo
Dm               Em
Tibio, Casi reaaaaal

Coro


Para el final va casi lo mismo de la intro
y con una improvisacion siempre en Am,
detesto salir con eso de la improvisacion pero esque
ya no puedo sacar lo demas, y aunque pudiera me da
una pereza muy grande, asi que de todos modos
sabeis que el final empieza con lo que va en la intro

¡¡¡¡¡¡¡¡CABRONEEEEES!!!!!!!!
		   
AcordesyTabs.com © 2008 Acordes y Tablaturas para guitarra. Tabs and Chords for guitar. Aviso Legal - Contacto
El uso de este sitio está sujeto a la aceptación de los términos y condiciones (29 usuarios online)