tablaturas, partituras y acordes para guitarra
Busca por banda/artista:
 
y/o título de la canción:
A B C D E F G H I J K L M N O P Q R S T U V W X Y Z 0 1 2 3 4 5 6 7 8 9 / Top 100 tabs
Categorías
Usuarios
usuario:
Darse de alta
password:
Artistas más visitados
Publicidad
TOP acordes y tablaturas de Pasteles Verdes


Estás en: Inicio > Letra P > Acordes y tablaturas de Pasteles Verdes > El último vals
El último vals
de Pasteles Verdes
Puntúa este acorde/tab:      
(0.3/5)
Reportar este acorde/tab
  Añadir a tus favoritos
  Imprimir
Esta es mi 4ta publicación, hice esta transcripción
para dos guitarras uno para los acordes y el otro para
el TAB.


[1]
               G      F#     G
e[-------------7----7-6----6-7-----------]
B[------7--------------------------------]
G[--7-9---9-7----------------------------]
D[---------------------------------------]
A[---------------------------------------]
E[---------------------------------------]

               Am     E         Am
e[-------------8----8-7----10-9-8--------]
B[------7--------------------------------]
G[--7-9---9-7----------------------------]
D[---------------------------------------]
A[---------------------------------------]
E[---------------------------------------]

                    D
e[------------------10-------------------]
B[--------10-----------------------------]
G[--11-12----12-11-----11-11-------------]
D[---------------------------------------]
A[---------------------------------------]
E[---------------------------------------]

               Am         Bm     G
e[-------------8----------7----7---------]
B[------7------------------------8-------]
G[--7-9---9-7----9-9---7-----------------]
D[---------------------------------------]
A[---------------------------------------]
E[---------------------------------------]



[2]
           (G)
e[--7-6-5-4-3--]
B[-------------]
G[-------------]
D[-------------]
A[-------------]
E[-------------]



[3]
              (G)
e[----------------]
B[----------------]
G[--4-5---7----4--]
D[----------------]
A[----------------]
E[----------------]



[4]
    G
e[---------------]
B[---------------]
G[--0-0-2-2-4-4--]
D[---------------]
A[---------------]
E[---------------]


NOTA: Los acordes y TAB los coloco debajo de la letra de
la canción, no arriba. Y los números que están entre [ ]
son los punteos que se repiten.





INTRO: [1] [2]


Recuerdas ese vals
              Am    D
y ese beso apurado
              G     Em
que te dejé al partir
                  Am  D
y en ti quedó grabado.
                 G    [2]
Es tanto mi dolor
              Am   D
que me destroza el alma
                   G     Em
desde que tú no estás
                  Am
te quiero más...
     D     G    [4]


 ...Y  sabrás que  no olvidarás
    Am    D        G        Em
e[--------------------------------]
B[---------------7-8-----7-8-7----]
G[--5---5-7----9---------------9--]
D[--------------------------------]
A[--------------------------------]
E[--------------------------------]


no importa si me quieres al final...
     Am    D      G           G7


     ...So--ña-rás   y   vi--vi-rás
        Am      D        G      Em
e[------------------------------------]
B[---------------------7-8---7-8-7----]
G[--0-0-2-2-4-5-7----9-------------9--]
D[------------------------------------]
A[------------------------------------]
E[------------------------------------]


en la felicidad.
    A        D

REP: Recuerdas ese vals.../

 /...y en ti quedó grabado
                      G    [3]

REP: [1] [2]

REP: Es tanto mi dolor.../

 /...en la felicidad
         A        D  D#

REP: Y sabrás.../

 /...en la felicidad
         A        D

REP: Recuerdas ese vals.../

 /...y en ti quedó grabado
                      G    [3]

(Cambio a ritmo de vals)
REP: [1] [1]...







Muy pronto............."Amor amor amor" - Nilton César



MIS PUBLICACIONES:

1) "Lo pasado pasado" - José José
2) "El triste" - José José
3) "Prometimos no llorar" - Palito Ortega
4) "El último vals" - Los Pasteles Verdes
		   
AcordesyTabs.com © 2008 Acordes y Tablaturas para guitarra. Tabs and Chords for guitar. Aviso Legal - Contacto
El uso de este sitio está sujeto a la aceptación de los términos y condiciones (23 usuarios online)