tablaturas, partituras y acordes para guitarra
Busca por banda/artista:
 
y/o título de la canción:
A B C D E F G H I J K L M N O P Q R S T U V W X Y Z 0 1 2 3 4 5 6 7 8 9 / Top 100 tabs
Categorías
Usuarios
usuario:
Darse de alta
password:
Artistas más visitados
Publicidad
TOP acordes y tablaturas de Tolidos


Hasta Hoy
de Tolidos
Puntúa este acorde/tab:      
(0.6/5)
Reportar este acorde/tab
  Añadir a tus favoritos
  Imprimir
Bueno sta es mi primera transcripcion q mando spero q les guste



Intro

e----------------------------------
B----------------------------------
G-6-6-6-6--------------------------
D-6-6-6-6—-7-7-7---4-4-4-----------
A-4-4-4-4—-7-7-7---4-4-4-----------
E----------5-5-5—--2-2-2-----------

e----------------------------------
B----------------------------------
G-6-6-6-6--------------------------
D-6-6-6-6—-------------------------
A-4-4-4-4—--0-2-4-2----------------
E----------------------------------


e----------------------------------
B----------------------------------
G-6-6-6-6------------------4-------
D-6-6-6-6—-7-7-7---4-4-4---4-------
A-4-4-4-4—-7-7-7---4-4-4---2-------
E----------5-5-5—--2-2-2-----------

Hasta hoy...

e------------
B------------
G-6----------
D-6--6-—7--4-
A-4--6--7--4-
E----4--5--2-

Que todo…

----------------------
----------------------
-4--6-----------------
-4--6--6--7-7---------
-2--4--6--7-7---------
-------4--5-5---------

Fue hoy…

e------------
B------------
G-6----------
D-6--6-—7--4-
A-4--6--7--4-
E----4--5--2-

Que fue de lo nuestro

----------------------
----------------------
-4-4-4-4-4--6---------
-4-4-4-4-4--6-7-------
-2-2-2-2-2--4-7-------
--------------5-------


La última vez... Yo pensé que tu...

-----------------------
-----------------------
--4-----6--------------
--4---—-6------7-------  x2  Aquí es cuestión de oír los cambios
--2-----4------7-------
---------------5-------
PM………………………………………………………


        C#                A
Para que seguir si tú quieres huir...

        G#   A      B
E intentas ir contra de todo...




*DESPUÉS REPITE LA PRIMERA ESTROFA



*SE REPITE EL INTRO



No pensaste antes de hablar...

-----------------------
-----------------------
--4-----6--------------
--4---—-6------7-------  x2
--2-----4------7-------
---------------5-------
PM………………………………………………………

        C#                A
Para que seguir si tú quieres huir...

        G#   A      B
E intentas ir contra de todo...




SE REPITE OTRA VEZ LA PRIMERA ESTROFA


No sabes lo que tienes...
Hasta que esta perdido...
Nunca lo entenderás...     : Se repiten los mismos acordes
Y ha sido lo mejor...
Fue lo mejor de los dos.




--------------------
--------------------
--------------------
-6-6-6-6—-7-7-7-7--- Se repite varias veces
-6-6-6-6—-7-7-7-7---
-4-4-4-4—-5-5-5-5---



       G#         A                 B           C#
Y durará por siempre...

       G#         A                 B           C#
Y durará por siempre...

       G#         A                 B           C#
Y durará por siempre...

       G#         A                 B           C#
Y durará por siempre...







SE REPITE OTRA VEZ LA PRIMERA ESTROFA



No sabes lo que tienes...
Hasta que esta perdido...
Nunca lo entenderás...   : Se repiten los mismos acordes

Y ha sido lo mejor...
		   
AcordesyTabs.com © 2008 Acordes y Tablaturas para guitarra. Tabs and Chords for guitar. Aviso Legal - Contacto
El uso de este sitio está sujeto a la aceptación de los términos y condiciones (21 usuarios online)