tablaturas, partituras y acordes para guitarra
Busca por banda/artista:
 
y/o título de la canción:
A B C D E F G H I J K L M N O P Q R S T U V W X Y Z 0 1 2 3 4 5 6 7 8 9 / Top 100 tabs
Categorías
Usuarios
usuario:
Darse de alta
password:
Artistas más visitados
Publicidad
TOP acordes y tablaturas de Dire straits


Ytse jam
de Dire straits
Puntúa este acorde/tab:      
(0.2/5)
Reportar este acorde/tab
  Añadir a tus favoritos
  Imprimir
I downloaded this song a few days, and I thought it was a little bit 
incorrect, just for the intro...This is what I think is correct (correct me 
if I'm wrong).... 
 
e---------------------------------------------------------------- 
B---------------------------------------------------------------- 
G----7-6-7----9-7-9----10-9-10--12-10-12--10-9-10--9-7-9--7-6-7-- 
D----------0--------0-------------------------------------------- 
A---------------------------------------------------------------- 
E---------------------------------------------------------------- 
 
 
-------------------------------------- 
-------------------------------------- 
-------------------------------------- 
---0--8-7-8--7-5-7--5-3-5--3-2-3------ 
-------------------------------------- 
 
E-mail me if you use this TAB...This is my first try... 
al766074@academ01.mty.itesm.mx 
 
 
From: William T Bajzek  
 
Here's everything but harmonies and solos before the drum solo. I'll try 
to pseodo-time it, but you have to listen to the recording to get it 
right. John plays the first half of the melody on the third string but I 
prefer the second. I didn't tab the harmonies. 
 
p = pinch harmonic 
bar = trem bar 
tp = tremolo pick 
m = palm mute 
/ = hammer 
 = slide 
 
----------------------------------------------------------- 
-5------------4-------------------------------------------- 
-4---3---2---3-------------------------------------------- 
-2---3---2---1-------------------------------------------- 
-----1---0---1-------------------------------------------- 
----------------------------------------------------------- 
         bar 
 
verse 
----------------------------------------------------------- 
-3-2-3---5-3-5---7-5-7-8-7-8-7-5-7-3-2-3------------------- 
----------------------------------------------------------- 
-------0-------0-------------------------0----------------- 
----------------------------------------------------------- 
----------------------------------------------------------- 
 
----------------------------------------------------------- 
----------------------------------------------------------- 
----------------------------------------------------------- 
-8-7-8---7-5-7---5-3-5---3-2-3----------------------------- 
----------------------------------------------------------- 
----------------------------------------------------------- 
 
chorus 
----------------------------------------------------------- 
----------------------------------------------------------- 
----------------------------------------------------------- 
-2---2---3---2---2---------2---2-------------0-2-3--------- 
-0---0---1---0---0---1-4---0---0---1---0-1-4--------------- 
-----------3-------------------------3--------------------- 
                     m m               m m m m m m 
 
----------------------------------------------------------- 
----------------------------------------------------------- 
---------------------------------------------1-1----------- 
-2---2-2-2---2-2-3-3-0-0-2---2-2-2---2-2-3-3--------------- 
----------------------------------------------------------- 
----------------------------------------------------------- 
 m   m m m   m m m m m m m   m m m   m m m m m m 
 
----------------------------------------------------------- 
----------------------------------------------------------- 
---------------------------------1-1-2-2-4-4-5-5----------- 
-2---2-2-2---2-2-3-3-0-0-2-2-3-3--------------------------- 
----------------------------------------------------------- 
----------------------------------------------------------- 
 m   m m m   m m m m m m m m m m m m m m m m m m 
 
----------------------------------------------------------- 
----------------------------------------------------------- 
----------------------------------------------------------- 
-2---2---3---2---2---------2---2-------------0-2-3--------- 
-0-000-001---0-000---1-4---0-000---1---0-1-4--------------- 
-----------3-------------------------3--------------------- 
   mm  mm      mm    m m     mm          p p p p p 
 
----------------------------------------------------------- 
----------------------------------------------------------- 
---------------------------------------------1-1----------- 
-2---2-2-2---2-2-3-3-0-0-2---2-2-2---2-2-3-3--------------- 
----------------------------------------------------------- 
----------------------------------------------------------- 
 m   m m m   m m m m m m m   m m m   m m m m m m 
 
----------------------------------------------------------- 
----------------------------------------------------------- 
---------------------------------1-1-2-2-4-4-5-5----------- 
-2---2-2-2---2-2-3-3-0-0-2-2-3-3--------------------------- 
----------------------------------------------------------- 
----------------------------------------------------------- 
 m   m m m   m m m m m m m m m m m m m m m m m m 
 
I'm not sure about the run after this and the next line so fake it. 
-------------------------------------------------------------- 
-------------------------------------------------------------- 
---------10-------9-------7-------------------------10-10-9-9- 
-7---7-7------7-7-----7-7-----8-8-10-10-12-12-11-11----------- 
-------------------------------------------------------------- 
-------------------------------------------------------------- 
                          h   tp-----------------------------| 
 
 
-------------------------------------------------------------- 
-------------------------------------------------------------- 
-------------------------------------------------------------- 
---------10-------9-------7-------------------------10-10-9-9- 
-7---7-7------7-7-----7-7-----8-8-10-10-12-12-11-11----------- 
-------------------------------------------------------------- 
                          h   tp-----------------------------| 
 
-----------------------------------10-12-13------------------- 
-10-11-8-10-11-14-10-11-8-10-11-14---------------------------- 
-------------------------------------------------------------- 
-------------------------------------------------------------- 
-------------------------------------------------------------- 
-------------------------------------------------------------- 
 tp----------------------------------------| 
 
-12-13-10-12-13-16-12-13-10-12-13-16-17-19-20----------------- 
-------------------------------------------------------------- 
-------------------------------------------------------------- 
-------------------------------------------------------------- 
-------------------------------------------------------------- 
-------------------------------------------------------------- 
 tp------------------------------------------| 
 
next the verse twice then 
 
----------------------1---0----------------------------------- 
------3-----3-----3---------------3---3---3---3---3----------- 
----2-----0-----2---2---2---2---2---3---2---0----------------- 
--0-----2-----3---------------0-----------------3---2--------- 
-------------------------------------------------------------- 
-------------------------------------------------------------- 
 
----------------------1---0----------------------------------- 
------3-----3-----3---------------3---3---3---3---3----------- 
----2-----0-----2---2---2---2---2---3---2---0----------------- 
--0-----2-----3---------------0-----------------3---2--------- 
-------------------------------------------------------------- 
-------------------------------------------------------------- 
 
-------------------------------------------------------------- 
-------------6-5---------------------------------------------- 
-7---5---2---5-5---------------------------------------------- 
-7---5---2-5-5-5---0-0-0-0-8-0-0-0-7-0-0-0-5-0-0-0-3---------- 
-5---3---0-5-3-3-------------------------------------3-------- 
-----------3-------------------------------------------------- 
 
-------------------------------------------------------------- 
-------------6-5---------------------------------------------- 
-7---5---2---5-5-7-------------------------------------------- 
-7---5---2-5-5-5-7-------------------------------------------- 
-5---3---0-5-3-3-5-------------------------------------------- 
-----------3-------------------------------------------------- 
 
-------------------------------------------------------------- 
-------------------------------------------------------------- 
-------------------------------------------------------------- 
-8-7-8---7----7----------------------------------------------- 
-----------10-----10-8-10---8-7-8---7-5-7---5-4-5---4---4----- 
------------------------------------------------------6------- 
 
-------------------------------------------------------------- 
---------------------------3---------------------------------- 
-2-------------------------2-------------2/3---------------- 
-2---3---2---3-2---3---2---0---------3-2-------3-------------- 
-0-00--00--001-0-00--00--0---1-3-5-4-------------------------- 
-------------------------------------------------------------- 
                             tp--------| 
 
 
-------------------------------------------------------------- 
---------------------------3---------------------------------- 
-2-------------------------2---------------------------------- 
-2---3---2---3-2---3---2---0---------3-0---------------------- 
-0-00--00--001-0-00--00--0---1-3-5-4-------------------------- 
-------------------------------------------------------------- 
                             tp------| h 
keyboard solo: 
-------------------------------------------------------------- 
-------------------------------------------------------------- 
-2------------3---2/3----2-----------4-3---2/3------------ 
-2------------3---------3--2-----------2-1---------3---------- 
-0---0-000-0001------------0--0-000-000----------------------- 
-------------------------------------------------------------- 
 
guitar solo: 
-------------------------------------------------------------- 
-------------------------------------------------------------- 
-------------------------------------------------------------- 
-------------------------------------------------------------- 
-5------------6-5/6-5-3----------------------------------- 
-3---3-333-3334-------------6-4------------------------------- 
 
-------------------------------------------------------------- 
-------------------------------------------------------------- 
-------------------------------------------------------------- 
--------------6---5/6-5-3--------------------------------- 
-5------------4---------------6-5-6-5-5----------------------- 
-3---3-333-333--------------------4-3-3----------------------- 
 
between solos: 
-------------------------------------------------------------- 
-------------------------------------------------------------- 
-5------------------------------------------------------------ 
-5------------------------------------------------------------ 
-3------------------------------------------------------------ 
-------------------------------------------------------------- 
 
bass solo: 
-------------------------------------------------------------- 
-------------------------------------------------------------- 
-7------------------------------------------------------------ 
-7------------8---7/8-7-5--------------------------------- 
-5---5-555-5556---------------8-6----------------------------- 
-------------------------------------------------------------- 
 
-------------------------------------------------------------- 
-------------------------------------------------------------- 
-7------------8---7/8-7-5------8-7-7---------------------- 
-7------------6---------------8-7--8-7-7---------------------- 
-5---5-555-555---------------------6-5-5---------------------- 
-------------------------------------------------------------- 
 
 
I got bored today and I figured out the rest of the song. I left out 
some of the stuff that repeats. 
 
b=bar 
 
after drum solo: 
----------------------------------------------------------------- 
----------------------------------------------------------------- 
-----------5-------7-6-6-------------5--------------------------- 
-----5-7-6---------7-6-6-------5-7-6-----------7-6--------------- 
-5-8---------8-5---5-4-4---5-8---------8-5-5-8------------------- 
----------------------------------------------------------------- 
 
----------------------------------------------------------------- 
----------------------------------------------------------------- 
-----------5-------7-6-6-------------5--------------------------- 
-----5-7-6---------7-6-6-------5-7-6-----------7-6--------------- 
-5-8---------8-5---5-4-4---5-8---------8-5-5-8------------------- 
----------------------------------------------------------------- 
 
----------------------------------------------------------------- 
-------------------6---6---6---6---6---6-------6-------4--------- 
-4---5---2---3---3---3---3---2---2---2---------5-------3--------- 
-2---2---0---0-----------------------------3-3-3---1-1-1--------- 
----------------------------------------------------------------- 
----------------------------------------------------------------- 
 
----------------------------------------------------------------- 
----------------------------------------------------------------- 
-----------5----------------------------------------------------- 
-----5-7-6------------------------------------------------------- 
-5-8---------8-5------------------------------------------------- 
----------------------------------------------------------------- 
 
----------------------------------------------------------------- 
-------------------6---6---6---6---6---6-------6-------4--------- 
-4---5---2---3---3---3---3---2---2---2---------5-------3--------- 
-2---2---0---0-----------------------------3-3-3---1-1-1--------- 
----------------------------------------------------------------- 
----------------------------------------------------------------- 
 
----------------------------------------------------------------- 
---------------6---6--------------------------------------------- 
-4---2---5---3---2----------------------------------------------- 
-2---0---3------------------------------------------------------- 
----------------------------------------------------------------- 
----------------------------------------------------------------- 
 
----------------------------------------------------------------- 
---------------6---6--------------------------------------------- 
-4---2---5---3---2----------------------------------------------- 
-2---0---3------------------------------------------------------- 
----------------------------------------------------------------- 
----------------------------------------------------------------- 
 
 
----------------------------------------------------------------- 
----------------------------------------------------------------- 
-------4-4---------4-4---------2-2---------2-2------------------- 
-2-2-2-2-2---2-2-2-2-2---0-0-0-0-0---0-0-0-0-0------------------- 
----------------------------------------------------------------- 
----------------------------------------------------------------- 
 
 
----------------------------------------------------------------- 
---------------------------6---6--------------------------------- 
-------5-5---------5-5---3---2----------------------------------- 
-3-3-3-3-3---3-3-3-3-3------------------------------------------- 
----------------------------------------------------------------- 
----------------------------------------------------------------- 
 
 
---7-------5-------8---------------------------------------------- 
-----8-------5-------8-------------------------------------------- 
-------9-------7-------10----------------------------------------- 
------------------------------------------------------------------ 
-7-------5-------8------------------------------------------------ 
------------------------------------------------------------------ 
 
---7-------5-------3---------------------------------------------- 
-----8-------5-------3-------------------------------------------- 
-------9-------7-------5------------------------------------------ 
------------------------------------------------------------------ 
-7-------5-------3------------------------------------------------ 
------------------------------------------------------------------ 
 
------------------------------------------------------------------ 
------------------------------------------------------------------ 
------------------------------------------------------------------ 
----------/7---------------/7-/8---------------------------------- 
-/7-/5-/8----/8---/7-/5-/8---------------------------------------- 
------------------------------------------------------------------ 
  b  b  b  b  b    b  b  b  b  b  
 
----------------------12-13-17-18--------------------------------- 
--------10-8-6-8-------------------------------------------------- 
-9-7-10----------9-7---------------------------------------------- 
------------------------------------------------------------------ 
------------------------------------------------------------------ 
------------------------------------------------------------------ 
                      w/ wide vibrato 
 
------------------------------------------------------------------ 
------------------------------------------------------------------ 
-4---4---4-2-4---4---4-5-4---4------------------------------------ 
-2---2---2-0-2---2---2-3-2---2------------------------------------ 
------------------------------------------------------------------ 
------------------------------------------------------------------ 		   
AcordesyTabs.com © 2008 Acordes y Tablaturas para guitarra. Tabs and Chords for guitar. Aviso Legal - Contacto
El uso de este sitio está sujeto a la aceptación de los términos y condiciones (24 usuarios online)