tablaturas, partituras y acordes para guitarra
Busca por banda/artista:
 
y/o título de la canción:
A B C D E F G H I J K L M N O P Q R S T U V W X Y Z 0 1 2 3 4 5 6 7 8 9 / Top 100 tabs
Categorías
Usuarios
usuario:
Darse de alta
password:
Artistas más visitados
Publicidad
TOP acordes y tablaturas de Foo fighters


Last song
de Foo fighters
Puntúa este acorde/tab:      
(0.3/5)
Reportar este acorde/tab
  Añadir a tus favoritos
  Imprimir
Intro
Guitar 1 (Carrys on playin through the verse)
e|--2-2-2-2-2-2-2-2-2-2-2-2-2-2-2-2-2-2--| 
B|--2-2-2-2-2-2-2-2-2-2-2-2-2-2-2-2-2-2--|
G|--4-4-4-4-4-4-4-4-4-4-4-4-4-4-4-4-4-4--|
D|--4-4-4-4-4-2-4-4-4-4-4-4-4-4-4-4-4-4--| x2
A|--2-2-2-2-2-2-2-2-2-2-2-2-2-2-2-2-2-2--|
E|---------------------------------------|

Verse
Guitar 2
e|--2-2-2-0-0-0-------0-0-0--------|  
B|--2-2-2-0-0-0-------0-0-0--------|
G|--4-4-4-2-2-2-6-6-6-2-2-2--------|
D|--4-4-4-2-2-2-6-6-6-2-2-2-2-2-2--| x9
A|--2-2-2-------4-4-4-------2-2-2--|
E|--------------------------0-0-0--|

Pre Chorus
Guitar 1
e|--2---2---2---2---2--|
B|--2---2---2---2---2--|
G|--4---4---4---4---4--|  
D|--4---4---4---4---4--| x2
A|--2---2---2---2---2--|
E|---------------------|

Guitar 2
e|--2---0-------0------|
B|--2---0-------0------|
G|--4---2---6---2------|  
D|--4---2---6---2---2--| x2     
A|--2-------4-------2--|
E|------------------0--|

Chorus
Guitar 1
e|--2-2-2-2-2-2-2-2-----------------0-0-0-0-0-0-0-0------------------|
B|--2-2-2-2-2-2-2-2-----------------0-0-0-0-0-0-0-0------------------|
G|--4-4-4-4-4-4-4-4-----------------2-2-2-2-2-2-2-2------------------|  
D|--4-4-4-4-4-4-4-4-2-2-2-2-2-2-2-2-2-2-2-2-2-2-2-2-2-2-2-2-2-2-2-2--| x2
A|--2-2-2-2-2-2-2-2-2-2-2-2-2-2-2-2-----------------2-2-2-2-2-2-2-2--|
E|------------------0-0-0-0-0-0-0-0-----------------0-0-0-0-0-0-0-0--|

Guitar 2
e|--2-2-2-2-2-2-2-2-7-7-7-7-7-7-7-7-5-5-5-5-5-5-5-5-4-4-4-4-4-4-4-4--|
B|--2-2-2-2-2-2-2-2-7-7-7-7-7-7-7-7-5-5-5-5-5-5-5-5-4-4-4-4-4-4-4-4--|
G|--4-4-4-4-4-4-4-4-(b9)(b9)(b9)(b9)(b9)(b9)(b9)(b9)7-7-7-7-7-7-7-7-6-6-6-6-6-6-6-6--|   
D|--4-4-4-4-4-4-4-4-(b9)(b9)(b9)(b9)(b9)(b9)(b9)(b9)7-7-7-7-7-7-7-7-6-6-6-6-6-6-6-6--| x2
A|--2-2-2-2-2-2-2-2-7-7-7-7-7-7-7-7-5-5-5-5-5-5-5-5-4-4-4-4-4-4-4-4--|
E|-------------------------------------------------------------------|

Verse
Guitar 2
e|--2-2-2-0-0-0-------0-0-0--------|  
B|--2-2-2-0-0-0-------0-0-0--------|
G|--4-4-4-2-2-2-6-6-6-2-2-2--------|
D|--4-4-4-2-2-2-6-6-6-2-2-2-2-2-2--| x9
A|--2-2-2-------4-4-4-------2-2-2--|
E|--------------------------0-0-0--|

Pre Chorus
Guitar 1
e|--2---2---2---2---2--|
B|--2---2---2---2---2--|
G|--4---4---4---4---4--|  
D|--4---4---4---4---4--| x2
A|--2---2---2---2---2--|
E|---------------------|

Guitar 2
e|--2---0-------0------|
B|--2---0-------0------|
G|--4---2---6---2------|  
D|--4---2---6---2---2--| x2     
A|--2-------4-------2--|
E|------------------0--|

Chorus
Guitar 1
e|--2-2-2-2-2-2-2-2-----------------0-0-0-0-0-0-0-0------------------|
B|--2-2-2-2-2-2-2-2-----------------0-0-0-0-0-0-0-0------------------|
G|--4-4-4-4-4-4-4-4-----------------2-2-2-2-2-2-2-2------------------|  
D|--4-4-4-4-4-4-4-4-2-2-2-2-2-2-2-2-2-2-2-2-2-2-2-2-2-2-2-2-2-2-2-2--| x2
A|--2-2-2-2-2-2-2-2-2-2-2-2-2-2-2-2-----------------2-2-2-2-2-2-2-2--|
E|------------------0-0-0-0-0-0-0-0-----------------0-0-0-0-0-0-0-0--|

Guitar 2
e|--2-2-2-2-2-2-2-2-7-7-7-7-7-7-7-7-5-5-5-5-5-5-5-5-4-4-4-4-4-4-4-4--|
B|--2-2-2-2-2-2-2-2-7-7-7-7-7-7-7-7-5-5-5-5-5-5-5-5-4-4-4-4-4-4-4-4--|
G|--4-4-4-4-4-4-4-4-(b9)(b9)(b9)(b9)(b9)(b9)(b9)(b9)7-7-7-7-7-7-7-7-6-6-6-6-6-6-6-6--|   
D|--4-4-4-4-4-4-4-4-(b9)(b9)(b9)(b9)(b9)(b9)(b9)(b9)7-7-7-7-7-7-7-7-6-6-6-6-6-6-6-6--| x4
A|--2-2-2-2-2-2-2-2-7-7-7-7-7-7-7-7-5-5-5-5-5-5-5-5-4-4-4-4-4-4-4-4--|
E|-------------------------------------------------------------------|

Bridge x2
Guitar 1
e|--2-2-2-2-2-2-2-2-2-2-2-2-2-2-2-2-4-4-4-4-4-4-4-4-4-4-4-4-4-4-4-4--|
B|--2-2-2-2-2-2-2-2-2-2-2-2-2-2-2-2-4-4-4-4-4-4-4-4-4-4-4-4-4-4-4-4--|
G|--4-4-4-4-4-4-4-4-4-4-4-4-4-4-4-4-6-6-6-6-6-6-6-6-6-6-6-6-6-6-6-6--|
D|--4-4-4-4-4-4-4-4-4-4-4-4-4-4-4-4-6-6-6-6-6-6-6-6-6-6-6-6-6-6-6-6--|
A|--2-2-2-2-2-2-2-2-2-2-2-2-2-2-2-2-4-4-4-4-4-4-4-4-4-4-4-4-4-4-4-4--|
E|-------------------------------------------------------------------|
                                                                        
e|--0-0-0-0-0-0-0-0-0-0-0-0-0-0-0-0----------------------------------|
B|--0-0-0-0-0-0-0-0-0-0-0-0-0-0-0-0----------------------------------|
G|--2-2-2-2-2-2-2-2-2-2-2-2-2-2-2-2----------------------------------|
D|--2-2-2-2-2-2-2-2-2-2-2-2-2-2-2-2-2-2-2-2-2-2-2-2-2-2-2-2-2-2-2-2--|
A|----------------------------------2-2-2-2-2-2-2-2-2-2-2-2-2-2-2-2--|
E|----------------------------------0-0-0-0-0-0-0-0-0-0-0-0-0-0-0-0--|

Guitar 2
e|---------------| |---------------| |---------------| |---------------|
B|---------------| |---------------| |---------------| |---------------|
G|--8------------| |--8------------| |--8-------6----| |--8-------6----|
D|----(b9)7--------| |----(b9)7--------| |----(b9)7--------| |----(b9)7--------|
A|--------(b9)7----| |--------(b9)7----| |--------(b9)-----| |--------(b9)-----|
E|------------7--| |------------(b9)-| |------------(b9)-| |------------(b9)-|

e|---------------| |---------------| |---------------| |---------------|
B|---------------| |---------------| |---------------| |---------------|
G|--8------------| |--8------------| |--8------------| |--8------------|
D|----(b9)7--------| |----(b9)7--------| |----(b9)7--------| |----(b9)7--------|
A|--------(b9)7----| |--------(b9)7----| |--------(b9)7----| |--------(b9)7----|
E|------------7--| |------------7--| |------------7--| |------------7--|

Verse
Guitar 2
e|--2-2-2-0-0-0-------0-0-0--------|  
B|--2-2-2-0-0-0-------0-0-0--------|
G|--4-4-4-2-2-2-6-6-6-2-2-2--------|
D|--4-4-4-2-2-2-6-6-6-2-2-2-2-2-2--| x3
A|--2-2-2-------4-4-4-------2-2-2--|
E|--------------------------0-0-0--|

Pre Chorus
Guitar 1
e|--2---2---2---2---2--|
B|--2---2---2---2---2--|
G|--4---4---4---4---4--|  
D|--4---4---4---4---4--| x1
A|--2---2---2---2---2--|
E|---------------------|

Guitar 2
e|--2---0-------0------|
B|--2---0-------0------|
G|--4---2---6---2------|  
D|--4---2---6---2---2--| x1     
A|--2-------4-------2--|
E|------------------0--|

Chorus
Guitar 1
e|--2-2-2-2-2-2-2-2-----------------0-0-0-0-0-0-0-0------------------|
B|--2-2-2-2-2-2-2-2-----------------0-0-0-0-0-0-0-0------------------|
G|--4-4-4-4-4-4-4-4-----------------2-2-2-2-2-2-2-2------------------|  
D|--4-4-4-4-4-4-4-4-2-2-2-2-2-2-2-2-2-2-2-2-2-2-2-2-2-2-2-2-2-2-2-2--| x2
A|--2-2-2-2-2-2-2-2-2-2-2-2-2-2-2-2-----------------2-2-2-2-2-2-2-2--|
E|------------------0-0-0-0-0-0-0-0-----------------0-0-0-0-0-0-0-0--|

Guitar 2
e|--2-2-2-2-2-2-2-2-7-7-7-7-7-7-7-7-5-5-5-5-5-5-5-5-4-4-4-4-4-4-4-4--|
B|--2-2-2-2-2-2-2-2-7-7-7-7-7-7-7-7-5-5-5-5-5-5-5-5-4-4-4-4-4-4-4-4--|
G|--4-4-4-4-4-4-4-4-(b9)(b9)(b9)(b9)(b9)(b9)(b9)(b9)7-7-7-7-7-7-7-7-6-6-6-6-6-6-6-6--|   
D|--4-4-4-4-4-4-4-4-(b9)(b9)(b9)(b9)(b9)(b9)(b9)(b9)7-7-7-7-7-7-7-7-6-6-6-6-6-6-6-6--| x4
A|--2-2-2-2-2-2-2-2-7-7-7-7-7-7-7-7-5-5-5-5-5-5-5-5-4-4-4-4-4-4-4-4--|
E|-------------------------------------------------------------------|

Outro
Guitar 1
e|--2---2---2---2---2--|
B|--2---2---2---2---2--|
G|--4---4---4---4---4--|  
D|--4---4---4---4---4--| x4
A|--2---2---2---2---2--|
E|---------------------|

Guitar 2
e|--2---0-------0------|
B|--2---0-------0------|
G|--4---2---6---2------|  
D|--4---2---6---2---2--| x4     
A|--2-------4-------2--|
E|------------------0--|		   
AcordesyTabs.com © 2008 Acordes y Tablaturas para guitarra. Tabs and Chords for guitar. Aviso Legal - Contacto
El uso de este sitio está sujeto a la aceptación de los términos y condiciones (22 usuarios online)