tablaturas, partituras y acordes para guitarra
Busca por banda/artista:
 
y/o título de la canción:
A B C D E F G H I J K L M N O P Q R S T U V W X Y Z 0 1 2 3 4 5 6 7 8 9 / Top 100 tabs
Categorías
Usuarios
usuario:
Darse de alta
password:
Artistas más visitados
Publicidad
TOP acordes y tablaturas de Distillers


Estás en: Inicio > Letra D > Acordes y tablaturas de Distillers > City of angels
City of angels
de Distillers
Puntúa este acorde/tab:      
(0.3/5)
Reportar este acorde/tab
  Añadir a tus favoritos
  Imprimir
: 
intro
G---------------------------------------------------------------------
D---------------------------------------------------------------------
A---------------------5-5-5-5-5-5---------------------7-7-7-7-7-7-7-7-
E-3-3-3-3-3-3---2-3---------------2-3---5-5-5-5-5---4-5---------------

G-------------------------------------------------------------------
D-------------------------------------------------------------------
A-------------2-3---5-5-5-5-5------------------4-5--7-7-7-7-7-7-7-7-
E-3-3-3-3-3-3----------------2-3---5-5-5-5-5-5----------------------

verse part 1 x2
G--------------------------------------------------------------------
D---5555555555555555-------------------------------------------------
A-------------------5555555555555555----------------7777777777777777-
E-----------------------------------5555555555555555-----------------

verse part2
G----------------------------------------------------------------------------------
D-5555555555555555-----------------------------------------------------------------
A---------------5555555555555555-12121212121212121212121212121212-7777777777777777-
E----------------------------------------------------------------------------------
those are twelves by the way. (16 0f 'em)

verse part 1 x1

chrous x2
G-------------------------0-2-0--------------------------------------
D-----------------------44-----4-0-----------------------------------
A-----------------555555-----------0000000000000000-7777777777777777-
E-3333333333333333---------------------------------------------------

verse part 1 x3

chrous x2

interlude part 1
G---------------------------------------
D----55555555---------77777777----------
A------------55555555---------77777777--
E---------------------------------------

part 2
G------------------------------------
D----5~---------------7~-------------
A-----------5~----------------7~-----
E------------------------------------

interlude part 1

chorus x4

end
G--------------------------------------------------
D--------------------------------------------------
A-----------5~---------0~--------------------------
E----3~-----------------------------0~-------------
you have to listen carfully for the last E, and thats it.
		   
AcordesyTabs.com © 2008 Acordes y Tablaturas para guitarra. Tabs and Chords for guitar. Aviso Legal - Contacto
El uso de este sitio está sujeto a la aceptación de los términos y condiciones (25 usuarios online)