tablaturas, partituras y acordes para guitarra
Busca por banda/artista:
 
y/o título de la canción:
A B C D E F G H I J K L M N O P Q R S T U V W X Y Z 0 1 2 3 4 5 6 7 8 9 / Top 100 tabs
Categorías
Usuarios
usuario:
Darse de alta
password:
Artistas más visitados
Publicidad
TOP acordes y tablaturas de Distillers


Estás en: Inicio > Letra D > Acordes y tablaturas de Distillers > Gypsy rose lee
Gypsy rose lee
de Distillers
Puntúa este acorde/tab:      
(0.2/5)
Reportar este acorde/tab
  Añadir a tus favoritos
  Imprimir
Tabber: Benjamin Marschner Leerebirne@web.de 
 
INTRO: 
 
1:-2---(0)----0-------------------0--3-3--3------| 
2:-3------3-------3-3-5----0-0--0-2----------2-3-| 
3:-2------0-------0-0-4-----------2--------------| 
4:-0------0-------0-0-4-----------2--------------| 
5:--------2-------2-2-2-----------0--------------| 
6:--------3-------3-3----------------------------| 
 
1:-2---------------------------0----------------------------| 
2:-3----3---3----3--3-3-5------2----------------------------| 
3:-2----0---0----0--0-0-4--4---2----------------------------| 
4:-0----0---0----0--0-0-4------2----/-----------------------| 
5:------2---2----2--2-2-2------0----/scratch with the pick!-| 
6:------3---3----3--3-3-------------/-----------------------| 
 
CHORUS: 2x 
 
gtr.1 
1:-------------------------------------------------| 
2:-7-----7-----3-----3-----9-----9-----5-----5-----| 
3:-7(8x)-7(8x)-4-----4-----9-----9-----7-----6-----| 
4:-7-----7-----5(8x)-5(8x)-9(8x)-9(8x)-7(8x)-7(8x)-| 
5:-5-----5-----5-----5-----7-----7-----7-----7-----| 
6:-------------3-----3-----------------5-----5-----| 
gtr.2 
1:---------------------------------------------------| 
2:-----7---------3---------9---------5---------5-----| 
3:-----7---------4---------9---------7---------6-----| 
4:-7-7-7(4x)-----5(4x)-9-9-9(4x)-----7(2x)-----7(2x)-| 
5:-5-5-5-----5-5-5-----7-7-7-----7-7-7-----7-7-7-----| 
6:-----------3-3-3---------------5-5-5-----5-5-5-----| 
 
 
Verse: 4x 
(after 2nd time pull the chort once every time with a 2nd gtr) 
1:---------------------------------------------------| 
2:-----7---------3---------9---------5---------5-----| 
3:-----7---------4---------9---------7---------6-----| 
4:-7-7-7(4x)-----5(4x)-9-9-9(4x)-----7(2x)-----7(2x)-| 
5:-5-5-5-----5-5-5-----7-7-7-----7-7-7-----7-7-7-----| 
6:-----------3-3-3---------------5-5-5-----5-5-5-----| 
 
Interlude:2x 
1:--------------------------------------------------------| 
2:-5-5-5--5-5-5--7-7-7--7-7-7--3-3-3--3-3-3--5-5-5--5-5-5-| 
3:-6-6-6--6-6-6--7-7-7--7-7-7--4-4-4--4-4-4--6-6-6--6-6-6-| 
4:-7-7-7--7-7-7--7-7-7--7-7-7--5-5-5--5-5-5--7-7-7--7-7-7-| 
5:-7-7-7--7-7-7--5-5-5--5-5-5--5-5-5--5-5-5--7-7-7--7-7-7-| 
6:-5-5-5--5-5-5----------------3-3-3--3-3-3--5-5-5--5-5-5-| 
 
Verse: 2x (after 1st time pull the chort once every time with a 2nd gtr) 
 
Chorus: 2x 
 
Solo: (Accompaniment of the chorus: 2x) 
   D   G   E     A4  A    D                G   E       A4 A 
1:-----3----------------|------------------7----------------| 
2:-3--------------------|-----8-7----7-----8---10--9--------| 
3:---------4-----7---6--|-7-------7-----7--7-----------7--6-| 
4:----------------------|-----------------------------------| 
5:----------------------|-----------------------------------| 
6:----------------------|-----------------------------------| 
 
Chorus: 4x 
 
Outro: 
 
1:-2-----------------------------------------------0--| 
2:-3(after this stop the dist.)-3--------------5---2--| 
3:-2----------------------------0--------------4---2--| 
4:-0----------------------------0--------------4---2--| 
5:------------------------------2--2---2---2-2-2---0--| 
6:------------------------------3--3---3---3-3--------| 
 
1:-2----3^2--0---0-------0---0---------| 
2:-3---------3---3---5---2-------2-----| 
3:-2---------0---0---4---2-----------2-| 
4:-0---------0---0---4---2-------------| 
5:-----------2---2---2---0-------------| 
6:-----------3---3---------------------|
		   
AcordesyTabs.com © 2008 Acordes y Tablaturas para guitarra. Tabs and Chords for guitar. Aviso Legal - Contacto
El uso de este sitio está sujeto a la aceptación de los términos y condiciones (31 usuarios online)