tablaturas, partituras y acordes para guitarra
Busca por banda/artista:
 
y/o título de la canción:
A B C D E F G H I J K L M N O P Q R S T U V W X Y Z 0 1 2 3 4 5 6 7 8 9 / Top 100 tabs
Categorías
Usuarios
usuario:
Darse de alta
password:
Artistas más visitados
Publicidad
TOP acordes y tablaturas de Distillers


Idoless
de Distillers
Puntúa este acorde/tab:      
(0.3/5)
Reportar este acorde/tab
  Añadir a tus favoritos
  Imprimir
Normal Tuning

Intro

------------------------------------------------------------------------------------
-------------------------------x6----4-2-----------------------------------------
-------5555-------------------------------4--------------5555------------------
5555---------22222222------------------------5555------------22222222--

------------------------
----------------------------------
-----------5555-------------------
5555-----------------2222--8888

Verse
-----------------------------------------
-----------------23455-543---------------
-------34533--------------------3-321-
---3-------------------------------------


----------------------------------------------
-----543---------23455--543------------
-------------33--------------------3-345---
3---------------------------------------------

Chorus

-----------------------------
-----------------------------
----------5555--------------
 5555--------------22222222-----x4

Bridge

---------------------------------------------------------------------
-------------------------------------------------------------------
44444444--------------------55555555------------------234---
----------------44444444--------------------22222222---------------x2

End

--------------------------------------------------------------------------------
----------------------------------------------------------------------------------
---------5555-------------------543------------5555----------------------345-----
5555-------------22222222-----------5555-----------22222222------

-------------------------------------------------------------------------
-------------------------------------------------------------------------------
----------5555----------------------333--------------5555-----------------
5555-----------------22222222-------------5555-----------22222222----------

-------------------------------
----------------------------
------------------------------
333333--------333333----5---

Order:
Intro
Verse
Chorus
Verse
Chorus
Verse
Chorus
Bridge
Chorus
End
		   
AcordesyTabs.com © 2008 Acordes y Tablaturas para guitarra. Tabs and Chords for guitar. Aviso Legal - Contacto
El uso de este sitio está sujeto a la aceptación de los términos y condiciones (34 usuarios online)