tablaturas, partituras y acordes para guitarra
Busca por banda/artista:
 
y/o título de la canción:
A B C D E F G H I J K L M N O P Q R S T U V W X Y Z 0 1 2 3 4 5 6 7 8 9 / Top 100 tabs
Categorías
Usuarios
usuario:
Darse de alta
password:
Artistas más visitados
Publicidad
TOP acordes y tablaturas de Distillers


Oldscratch
de Distillers
Puntúa este acorde/tab:      
(0.8/5)
Reportar este acorde/tab
  Añadir a tus favoritos
  Imprimir
Tabber: Benjamin Marschner Leerebirne@web.de 
 
 
1:-3-----1-----0-----|-3-----1-----0-----|-3-----1-----0-----| 
2:-3-----1-----0-----|-3-----1-----0-----|-3-----1-----0-----| 
3:-4-----2-----1-----|-4-----2-----1-----|-4-----2-----1-----| 
4:-5-----3-----2-----|-5-----3-----2-----|-5-----3-----2-----| 
5:-5(8x)-3(4x)-2(4x)-|-5(8x)-3(4x)-2(4x)-|-5(8x)-3(4x)-2(4x)-| 
6:-3-----1-----0-----|-3-----1-----0-----|-3-----1-----0-----| 
 
1:-3-----1-----0-----|-3-----1-----0-----| 
2:-3-----1-----0-----|-3-----1-----0-----| 
3:-4-----2-----1-----|-4-----2-----1-----| 
4:-5-----3-----2-----|-5-----3-----2-----| 
5:-5(4x)-3(4x)-2(8x)-|-5(4x)-3(4x)-2(8x)-| 
6:-3-----1-----0-----|-3-----1-----0-----| 
 
1:-3-----1-----0-----|-3-----0-----1-----|-3-----3-3--1-1---0-----| 
2:-3-----1-----0-----|-3-----0-----1-----|-3-----3-3--1-1---0-----| 
3:-4-----2-----1-----|-4-----1-----2-----|-4-----4-4--2-2---1-----| 
4:-5-----3-----2-----|-5-----2-----3-----|-5-----5-5--3-3---2-----| 
5:-5(8x)-3(4x)-2(4x)-|-5(8x)-2(4x)-3(4x)-|-5(4x)-5-5--3-3---2(4x)-| 
6:-3-----1-----0-----|-3-----0-----1-----|-3-----3-3--1-1---0-----| 
 
1:-3-----1-----0-----|-3-----1-----0-----|-3-----1-----0-----|-3-----1-----0-----| 
2:-3-----1-----0-----|-3-----1-----0-----|-3-----1-----0-----|-3-----1-----0-----| 
3:-4-----2-----1-----|-4-----2-----1-----|-4-----2-----1-----|-4-----2-----1-----| 
4:-5-----3-----2-----|-5-----3-----2-----|-5-----3-----2-----|-5-----3-----2-----| 
5:-5(4x)-3(4x)-2(8x)-|-5(4x)-3(4x)-2(8x)-|-5(4x)-3(4x)-2(8x)-|-5(4x)-3(4x)-2(8x)-| 
6:-3-----1-----0-----|-3-----1-----0-----|-3-----1-----0-----|-3-----1-----0-----| 
 
1:-3-3---1-1---0---|-3-3---1-1---0---| 
2:-3-3---1-1---0---|-3-3---1-1---0---| 
3:-4-4---2-2---1---|-4-4---2-2---1---| 
4:-5-5---3-3---2---|-5-5---3-3---2---| 
5:-5-5---3-3---2---|-5-5---3-3---2---| 
6:-3-3---1-1---0---|-3-3---1-1---0---| 
 
That's it!
		   
AcordesyTabs.com © 2008 Acordes y Tablaturas para guitarra. Tabs and Chords for guitar. Aviso Legal - Contacto
El uso de este sitio está sujeto a la aceptación de los términos y condiciones (31 usuarios online)