tablaturas, partituras y acordes para guitarra
Busca por banda/artista:
 
y/o título de la canción:
A B C D E F G H I J K L M N O P Q R S T U V W X Y Z 0 1 2 3 4 5 6 7 8 9 / Top 100 tabs
Categorías
Usuarios
usuario:
Darse de alta
password:
Artistas más visitados
Publicidad
TOP acordes y tablaturas de Distillers


Open sky
de Distillers
Puntúa este acorde/tab:      
(0.4/5)
Reportar este acorde/tab
  Añadir a tus favoritos
  Imprimir
Tabber: Benjamin Marschner Leerebirne@web.de 
 
INTRO 
1:--------------------------------------------------------------| 
2:--------------------------------------------------------------| 
3:--------------------------------------------------------------| 
4:--------------------------------------------------------------| 
5:-3-----------3------------------------3---------3-------------| 
6:-----0-1---------0--1----3----1---------1---------1----3----1-| 
 
CHORUS 
2x: 
1:-----------------|-----------------|-------------| 
2:-----------------|-----------------|-------------| 
3:-5---------------|-5---------------|-------------| 
4:-5(6x)-2-2-3(8x)-|-5(6x)-2-2-3(8x)-|-5(8x)-3(8x)-| 
4:-3-----2-2-3-----|-3-----2-2-3-----|-5-----3-----| 
5:-------0-0-1-----|-------0-0-1-----|-3-----1-----| 
 
VERSE 
 
Riff1:                      Riff2: 
1:--------------------------|--------------------| 
2:--7-----------5-----------|-7------------------| 
3:--7-----4-----5-----4-----|-7-----4-----2------| 
4:--7(8x)-5(8x)-5(8x)-5(8x)-|-7(8x)-5(8x)-3(16x)-| 
5:--5-----5-----3-----5-----|-5-----5-----3------| 
6:--------3-----------3-----|-------3-----1------| 
 
ORDER: 
Intro 1x 
 
Chorus 
 
Verse 1: 
Riff1 3x 
Riff2 1x 
 
Chorus 
 
Verse 2: 
Riff1 1x 
Riff2 1x 
Riff1 1x 
Riff2 1x 
 
Chorus 
 
Bass-Solo (no gtr) 
 
Verse 3: 
 
Riff1 1x 
Riff2 1x 
Riff1 1x 
Riff2 1x 
 
Chorus/End 3:-5/7--
		   
AcordesyTabs.com © 2008 Acordes y Tablaturas para guitarra. Tabs and Chords for guitar. Aviso Legal - Contacto
El uso de este sitio está sujeto a la aceptación de los términos y condiciones (28 usuarios online)