tablaturas, partituras y acordes para guitarra
Busca por banda/artista:
 
y/o título de la canción:
A B C D E F G H I J K L M N O P Q R S T U V W X Y Z 0 1 2 3 4 5 6 7 8 9 / Top 100 tabs
Categorías
Usuarios
usuario:
Darse de alta
password:
Artistas más visitados
Publicidad
TOP acordes y tablaturas de Distillers


Estás en: Inicio > Letra D > Acordes y tablaturas de Distillers > Seneca falls
Seneca falls
de Distillers
Puntúa este acorde/tab:      
(0.7/5)
Reportar este acorde/tab
  Añadir a tus favoritos
  Imprimir
tabbed by: Kevin LeFrank 
Published by epitaph records 
 
this is my second tab so i think i did pretty good and i wanna hear ur comments 
corrections or just to chat email me enjoy =) 
Intro 
E-7--7-------------------4--7-10-10-10-9-7---------------------------------- 
B-7--7---9^---7h9p7h9p7--5------------------10-9-7---------12-------12------ 
G------------------------4-------------------------9-11^-9-----11^-9--11^-9- 
D--------------------------------------------------------------------------- 
A--------------------------------------------------------------------------- 
E--------------------------------------------------------------------------- 
 
bridge 
E-------------------------------------------- 
B-----pick slide--------------------------- 
G---------------------9----------9---------- 
D---------------------9---7-----9-----7---- 
A---------------------7---7-----7-----7---- 
E--------------------------5-----------5---- 
        Let these notes ring 
Verse 
E------------------------|------------------------------------------------ 
B------------------------|------------------------------------------------ 
G--9-9--999---9-9--999---|------------------------------------------------ 
D--9-9--999---9-9--999---|--x2---7-7--777---7-7--777---11-11--11 11 11---- 
A--7-7--777---7-7--777---|-------7-7--777---7-7--777----9--9---9  9  9---- 
E------------------------|-------5-5--555---5-5--555----------------------	 
           Palm mute the whole verse 
 
Bridge #2 
E-----------------|------------------------------------------------------------------
B-----------------|------------------------------------------------------------------
G-----------------|------------------------------------------------------------------
D--7--5------5--|-x2--7--5------7---5--9---------------------------------------------
A--5--3--5--3---|-----5--3--5--5---3--7----------------------------------------------
E---------3-------|-----------3------------------------------------------------------ 
Let them ring  
 
 
Intro       x1 
Bridge#1    x1 
Verse       x6 
Bridge#2    x1 
Bridge#1    x2 
Verse       x10
		   
AcordesyTabs.com © 2008 Acordes y Tablaturas para guitarra. Tabs and Chords for guitar. Aviso Legal - Contacto
El uso de este sitio está sujeto a la aceptación de los términos y condiciones (29 usuarios online)