tablaturas, partituras y acordes para guitarra
Busca por banda/artista:
 
y/o título de la canción:
A B C D E F G H I J K L M N O P Q R S T U V W X Y Z 0 1 2 3 4 5 6 7 8 9 / Top 100 tabs
Categorías
Usuarios
usuario:
Darse de alta
password:
Artistas más visitados
Publicidad
TOP acordes y tablaturas de Distillers


Estás en: Inicio > Letra D > Acordes y tablaturas de Distillers > The young crazed peeling
The young crazed peeling
de Distillers
Puntúa este acorde/tab:      
(0.8/5)
Reportar este acorde/tab
  Añadir a tus favoritos
  Imprimir
Intro
The 3 12's r played real quick listen to the song to see wot i mean
G-------------------------------------|
D---------------12*3-10---------------|
A----------------------10-------------|
E-------------------------------------|

Verse1
G------------------------------------|
D------------------------------------|
A--------------------3-3-3-3-3-3-3-3-|
E--3-3-3-3--1-1-1-1------------------|

Verse2
                      Listen to the song to get this bit
G------------------------------------------|
D-------------------------------22335532---|
A--------------------3-3-3-3-3-3---------3-|
E--3-3-3-3--1-1-1-1------------------------|

Chorus
G---------------------------------------|
D---------------------------------------|
A----------3-3-3-3----------------------|
E-1-1-1-1-----------3-3-3-3-3-3-3-3-3-2-|

Bridgey Solo type thing at 1:55
G-------------------------------------|
D-45555555555555 x3-------------------|
A---------------3--*let ring a little-|
E-------------------------------------|
		   
AcordesyTabs.com © 2008 Acordes y Tablaturas para guitarra. Tabs and Chords for guitar. Aviso Legal - Contacto
El uso de este sitio está sujeto a la aceptación de los términos y condiciones (20 usuarios online)