tablaturas, partituras y acordes para guitarra
Busca por banda/artista:
 
y/o título de la canción:
A B C D E F G H I J K L M N O P Q R S T U V W X Y Z 0 1 2 3 4 5 6 7 8 9 / Top 100 tabs
Categorías
Usuarios
usuario:
Darse de alta
password:
Artistas más visitados
Publicidad
TOP acordes y tablaturas de Disturbed


Estás en: Inicio > Letra D > Acordes y tablaturas de Disturbed > Down with the sicknesss
Down with the sicknesss
de Disturbed
Puntúa este acorde/tab:      
(0.6/5)
Reportar este acorde/tab
  Añadir a tus favoritos
  Imprimir
Down with the Sickness
Tabber: c0z420

Tuning: 1/2 Step Down  Db Ab Db Gb

INTRO: 
Gb|-------------------------------|
Db|-------------------------------|
Ab|-------------------------------|
Db|-x-x-x-x-x--x-x-x-x-x--x-x-x-x-|

Main Riff/Verse part 2:
Gb|----------------------||---------||--------|
Db|----------------------||---------||--------|
Ab|----------------------||---------||--------|
Db|-2-5-2-3-2--2-5-2-3-2-||-2-5-2-3-||-2-3333-|

Verse: 
Gb|---------------------|
Db|---------------------|
Ab|---------------------|
Db|-2222--22222-2222222-|

Chorus:
Gb|---------------------------------------|
Db|---------------------------------------|
Ab|---------------------------------------|
Db|-2--2-3-2-x-----2-2-3-2--2--2-3-2-x----|

INTERLUDE:
Gb|------------------------------|
Db|------------------------------|
Ab|-------3--4---7^-----4--3-----|
Db|-4^-------------------------2-|

INTERLUDE 2:
Gb|---------------------------|
Db|---------------------------|
Ab|----3--4----------3--4-----|
Db|-4---------44-4---------4--|

OUTRO 1: 
Gb|-------------------------------|
Db|-4-7-4-5-4--4-7-4-5-4--4-7-4-5-|
Ab|-------------------------------|
Db|-------------------------------|

OUTRO 2:
Gb|----------------------|play |---------|play|--------|
Db|----------------------|this |---------|this|--------|
Ab|----------------------|1st  |---------|4th |--------|
Db|-4-7-4-5-4--4-7-4-5-4-|    :|-4-7-4-5-|    |-4-5555-|
		   
AcordesyTabs.com © 2008 Acordes y Tablaturas para guitarra. Tabs and Chords for guitar. Aviso Legal - Contacto
El uso de este sitio está sujeto a la aceptación de los términos y condiciones (47 usuarios online)