tablaturas, partituras y acordes para guitarra
Busca por banda/artista:
 
y/o título de la canción:
A B C D E F G H I J K L M N O P Q R S T U V W X Y Z 0 1 2 3 4 5 6 7 8 9 / Top 100 tabs
Categorías
Usuarios
usuario:
Darse de alta
password:
Artistas más visitados
Publicidad
TOP acordes y tablaturas de Disturbed


Sickness
de Disturbed
Puntúa este acorde/tab:      
(0.3/5)
Reportar este acorde/tab
  Añadir a tus favoritos
  Imprimir
OK this is the same as what some one else has posted just in  
standard tuning because what is the point in going down half a step? 
It's pointless and just takes too much effort to keep changing the 
tuning! 
 
Anyway here it is my first tab, well actualy it isn't really mine  
but there we go! 
 
Drop D tuning. 
                                    
e|----------------------------------| 
B|----------------------------------| 
G|----------------------------------| 
D|----------------------------------|  x3 
A|-6-9-6-7-6---6-9-6-7-6---6-9-6-7--| 
D|----------------------------------| 
 
e|------------------------| 
B|------------------------| 
G|------------------------| 
D|------------------------| 
A|-6-9-6-7-6---6-9-6-7-6--| 
D|------------------------| 
 
Dodgy vocals that sounds cool! 
 
e|----------------------------------| 
B|----------------------------------| 
G|----------------------------------| 
D|-1-4-1-2-1---1-4-1-2-1---1-4-1-2--|  x3 
A|-1-4-1-2-1---1-4-1-2-1---1-4-1-2--| 
D|-1-4-1-2-1---1-4-1-2-1---1-4-1-2--| 
 
e|----------------------------------| 
B|----------------------------------| 
G|----------------------------------| 
D|-1-4-1-2-1---1-4-1-2-1---1-2-2-2--|   
A|-1-4-1-2-1---1-4-1-2-1---1-2-2-2--| 
D|-1-4-1-2-1---1-4-1-2-1---1-2-2-2--| 
 
e|----------------------------------| 
B|----------------------------------| 
G|----------------------------------| 
D|-1-4-1-2-1---1-4-1-2-1---1-4-1-2--|  x3 
A|-1-4-1-2-1---1-4-1-2-1---1-4-1-2--| 
D|-1-4-1-2-1---1-4-1-2-1---1-4-1-2--| 
 
e|----------------------------------| 
B|----------------------------------| 
G|----------------------------------| 
D|-1-4-1-2-1---1-4-2-2-2-2-2-2-2-2--|  x3 
A|-1-4-1-2-1---1-4-2-2-2-2-2-2-2-2--| 
D|-1-4-1-2-1---1-4-2-2-2-2-2-2-2-2--| 
                   PM............. 
Verse: 
 
e|----------------------------------| 
B|----------------------------------| 
G|----------------------------------| 
D|-1-1-1-1-1---1-1-1-1-1---1-1-1-1--|  x3 
A|-1-1-1-1-1---1-1-1-1-1---1-1-1-1--| 
D|-1-1-1-1-1---1-1-1-1-1---1-1-1-1--| 
   PM.......   .........   ....... 
 
e|-----------------------------------| 
B|-----------------------------------| 
G|--------------------------------4--| 
D|-1-1-1-1-1---1-1-1-1-1---2-2--4----|   
A|-1-1-1-1-1---1-1-1-1-1---2-2-------| 
D|-1-1-1-1-1---1-1-1-1-1---2-2-------| 
 
Pre-chorus: 
 
e|----------------------------------| 
B|----------------------------------| 
G|----------------------------------| 
D|-1-4-1-2-1---1-1-1-1-1---1-1-1-1--|  x3 
A|-1-4-1-2-1---1-1-1-1-1---1-1-1-1--| 
D|-1-4-1-2-1---1-1-1-1-1---1-1-1-1--| 
 
e|-----------------------------------| 
B|-----------------------------------| 
G|--------------------------------4--| 
D|-1-4-1-2-1---1-1-1-1-1---1-2--4----|  
A|-1-4-1-2-1---1-1-1-1-1---1-2-------| 
D|-1-4-1-2-1---1-1-1-1-1---1-2-------| 
 
Chorus: 
 
e|------------------------------------|-----------------------------------| 
B|----------------4--4----------------|----------------4------------------| 
G|------------------------------------|-------------------4---------------| 
D|------------------------------------|-----------------------------------| 
A|-1----1-2-1------------1-----1-2-1--|-1----1-2-1-----------1-----1-2-1--| 
D|-1----1-2-1------------1-----1-2-1--|-1----1-2-1-----------1-----1-2-1--| 
 
e|------------------------------------|-----------------------------------| 
B|----------------4--4----------------|----------------4------------------| 
G|------------------------------------|-------------------4---------------| 
D|------------------------------------|-----------------------------------| 
A|-1----1-2-1------------1-----1-2-1--|-1----1-2-1-----------1------------| 
D|-1----1-2-1------------1-----1-2-1--|-1----1-2-1-----------1---/18~~~~--| 
 
after u repeat this let the last note ring out like this: 
 
D|--------------|------------------------------| 
A|-1------------|------------------------------| 
D|-1------------|-----------/16-(long slide)--| 
 
Then onto the 2nd chorus dont let the note ring out; instead go into the Bridge here: 
 
e|-------------------------------------|----------------------------------| 
B|-------------------------------------|----------------------------------| 
G|-------------------------------------|----------------------------------| 
D|-------------------------------------|----------------------------------| 
A|---------------1/2--------3----3/6~~~|~~~~~~--X-X-2/3------2----X-X-----| 
D|-3~~~~--X-X--------------------------|-------------------------------1--| 
 
e|-------------------------------------|----------------------------------| 
B|-------------------------------------|----------------------------------| 
G|-------------------------------------|-------------5-------4------------| 
D|-------------------------------------|-------------5-------4----X-X--1--| 
A|---------------1/2---------3----3/6~~|~~~~~~--X-X--3-------2----X-X--1--| 
D|-3~~~~~--X-X-------------------------|-------------------------------1--| 
                                                                            
e|-----------------------------------------|----------------------------| 
B|-----------------------------------------|----------------------------| 
G|---------------4---------5----------5----|---------------4---------5--| 
D|-3-------------4---------5----------3----|-3-------------4---------5--| x8 
A|-3--------X-X--2---------3-----X-X-------|-3--------X-X--2---------3--| 
D|-3--------X-X------------------X-X-------|-3--------X-X---------------| 
 
Interlude: 
 
e|-------------------------------------| 
B|-------------------------------------| 
G|-------------------------------------| 
D|-------------------------------------|  x3   
A|-8-11-8-9-8---8-11-8-9-8---8-11-8-9--|       
D|-------------------------------------|       
 
e|------------------------| 
B|------------------------| 
G|------------------------| 
D|------------------------| 
A|-8-11-8-9-8---8-11-8-9--| 
D|------------------------| 
 
Outro: 
 
e|----------------------------------| 
B|----------------------------------| 
G|----------------------------------| 
D|-3-6-3-4-3---3-6-3-4-3---3-6-3-4--| 
A|-3-6-3-4-3---3-6-3-4-3---3-6-3-4--| repeat this riff until the end 
D|-3-6-3-4-3---3-6-3-4-3---3-6-3-4--| 
 
This is a wicked song, enjoy. Listen to the song to get the timing right.
		   
AcordesyTabs.com © 2008 Acordes y Tablaturas para guitarra. Tabs and Chords for guitar. Aviso Legal - Contacto
El uso de este sitio está sujeto a la aceptación de los términos y condiciones (30 usuarios online)