tablaturas, partituras y acordes para guitarra
Busca por banda/artista:
 
y/o título de la canción:
A B C D E F G H I J K L M N O P Q R S T U V W X Y Z 0 1 2 3 4 5 6 7 8 9 / Top 100 tabs
Categorías
Usuarios
usuario:
Darse de alta
password:
Artistas más visitados
Publicidad
TOP acordes y tablaturas de Dizzy mizz lizzy


11:07pm
de Dizzy mizz lizzy
Puntúa este acorde/tab:      
(0.5/5)
Reportar este acorde/tab
  Añadir a tus favoritos
  Imprimir
Dizzy Mizz Lizzy - 11:07pm  
 
 
Vers/intro-riff  
D||---------------------0-----|--------------------0-----|  
A||--2----2--2-2-0-2-0-----2--|------2--2-2-0-2-0-----0--|  
F||--2----2--2-2-----------2--|------2--2-2-----------2--|  
C||--4----4--4-4-----------4--|------4--4-4-----------2--|  
G||--5----5--5-5-----------5--|------5--5-5-----------0--|  
D||---------------------------|--------------------------|  
 
 
Slut vers/intro-riff/ Efter 1. vers  
---------------------0-----|-----------------0----|---------------------5-7-5--|  
-------0--0-0---0-------0--|---------0------------|--5--5--5--5--5--5-5-5-5-5--|  
-------2--2-2-2---2-----2--|------------2---------|--7--7--7--7--7--7-7-7-7-7--|  
-------2--2-2-----------2--|----------------------|--7--7--7--7--7--7-7-7-7-7--|  
--0------------------------|----0-----------------|--5--5--5--5--5--5-5--------|  
---------------------------|----------------------|----------------------------|  
 
 
Efter 2. og 3. vers  
----4---4-5-4----------|---------------------5-7-5--|---4-4--4---5-4/----------|  
----4---4---4----------|--5--5--5--5--5--5-5-5-5-5--|---4-4--4---4-4/---x-x----|  
----6---6---6----------|--7--7--7--7--7--7-7-7-7-7--|---6-6--6---6-6/---x-x-2--|  
----6---6---6----------|--7--7--7--7--7--7-7-7-7-7--|---6-6--6---6-6/---x-x-1--|  
--4--------------------|--5--5--5--5--5--5-5--------|---4-4--4---4----------1--|  
-----------------------|----------------------------|--------------------------|  
 
 
 
Omkv' 
D||----------------------------|------------------------|  
A||--7--9--10--10----9---------|----7--9--9----7--7--7--|  
F||--7--7--7---7--------11--9--|---------------9--9--9--|  
C||--7--7--7---7------------9--|---------------7--7--7--|  
G||-------------------------7--|------------------------|  
D||----------------------------|------------------------|  
 
 
 
------------------------9---|---9---9--9---9--9----9--9-----9---9--|  
--7--9--10--9-----------11--|---11--11-11--11-11---11-11----11--11-|  
--7---------9----11--9--11--|---11--11-11--11-11-x-11-11--x-11--11-|  
--7---------9-----------11--|---11--11-11--11-11-x-11-11--x-11--11-|  
------------------------9---|---9---9--9---9--9--x-9--9---x-9---9--|  
----------------------------|--------------------------------------|  
 
 
 
----------------------------|------------------------|  
--7--9--10--10----9---------|----7--9--9----7--7--7--|  
--7--7--7---7--------11--9--|---------------9--9--9--|  
--7--7--7---7------------9--|---------------7--7--7--|  
-------------------------7--|------------------------|  
----------------------------|------------------------|  
 
 
TIL CODA  
---------------------------|--------------------------|  
--7--9--10--9--------------|--------------------------|  
--7---------9----11--9--8--|--------8--------8--------|  
--7---------9-----------7--|--------7--------7--------|  
------------------------9--|---9--9-----9--9-----9--9-|  
------------------------7--|---7--7-----7--7-----7--7-|  
 
 
CODA  
----------------------------|--9-----------------|-----------------------------|  
--7--9--10--9---------------|--11----------------|-----------9-------------11--|  
--7--7--7---9-----11--11----|--11----------------|--7--7-----9-----11--9---11--|  
--7---------9-----9---9-----|--11----------------|--7--7--9--9-----9---9---11--|  
--9---------11----11--11----|--9-----------------|--9--9--9--11----11--11--9---|  
--7---------9---------------|--------------------|--7--7--7--9-----9---9-------|  
 
 
OUTRO  
------------------|--5----5--5-------7h9p7----|--4---5-4-------------------|  
------------------|--5----5--5----------------|--4--------4-----5-4-5-4-5--|  
------------------|--7----7--7----7--------7--|--6------------6------------|  
------------------|--7------------7-----------|--6-------------------------|  
------------------|--5------------------------|--6-------------------------|  
------------------|---------------------------|----------------------------|  
 
 
 
---------------------0-----|------------------||  
--2----2----2---2-------0--|------------------||  
--2----2--2---4---4-----2--|------------------||  
--4----4----------------2--|------------------||  
--5----5----------------0--|------------------||  
---------------------------|------------------||  
 
Rytmeguitar til omkv' og under leadsoloen*  
D||-------------------------|------------------------|  
A||--5--5--5--5----5--5-----|------------------------|  
F||--7--7--7--6----6--6--9--|----9--9--9----9--9--9--|  
C||--7--7--7--7----7--7--9--|----9--9--9----7--7--7--|  
G||--5--5--5--7----7--7--7--|----7--7--7----9--9--9--|  
D||--5--5--5--5----5--5--7--|----7--7--7----7--7--7--|  
 
 
 
--------------------------|----------------------------|  
--5--5--5-----------------|----------------------------|  
--7--7--7--9----9--9--11--|--------11--------11--------|  
--7--7--7--9----9--9--11--|--------11--------11--------|  
--5--5--5--7----7--7--9---|---9--9------9--9------9--9-|  
--5--5--5--7----7--7--9---|---9--9------9--9------9--9-|  
 
 
 
-------------------------|------------------------|----------------------7--|  
--5--5--5--5----5--5-----|------------------------|--5--5--5-------------7--|  
--7--7--7--6----6--6--9--|----9--9--9----9--9--9--|--7--7--7--9----9--9--8--|  
--7--7--7--7----7--7--9--|----9--9--9----7--7--7--|--7--7--7--9----9--9--7--|  
--5--5--5--7----7--7--7--|----7--7--7----9--9--9--|--5--5--5--7----7--7--9--|  
--5--5--5--5----5--5--7--|----7--7--7----7--7--7--|--5--5--5--7----7--7-----|  
 
 
 
--------7--------7--------|---------------------------|--------------------|  
--------7--------7--------|---------------------------|--------------------|  
--------8--------8--------|--7--7--7--9-----9---9-----|--11----------------|  
---7--7-7---7--7-7---7--7-|--7--7--7--9-----9---9-----|--11----------------|  
---9--9-----9--9-----9--9-|--9--9--9--11----11--11----|--9-----------------|  
---7--7-----7--7-----7--7-|--7--7--7--9-----9---9-----|--9-----------------|  
 
 
Solo  
 
 
D||--5-------5------7h9p7----|--4---5-4-------------------|  
A||--5-------5------------7--|--4--------4-----------4----|  
F||--7-------7---------------|--6--------------5-4-5---4--|  
C||--7----7--7---------------|--6------------6------------|  
G||--5----5------------------|--6-------------------------|  
D||--------------------------|----------------------------|  
 
 
 
--5------5------7h9p7----|--4---5-4--------7---4-----|--5--------5------7-9-7--|  
--5------5------------7--|--4--------4-----------4---|--5--------5-------------|  
--7------7---------------|--6------------6---7-------|-----7--7----------------|  
--7------7---------------|--6------------------------|-----7--7----------------|  
--5----------------------|--6------------------------|-------------------------|  
-------------------------|---------------------------|-------------------------|  
 
 
 
--4---5-4-------5---4-------|--5--5--5--5--5--5-5-5--7-5-|  
--4--------4------------4---|--5--5--5--5--5--5-5-5--5-5-|  
--6-------------------------|--7--7--7--7--7--7-7-7--7-7-|  
--6-----------6---6---6-----|--7--7--7--7--7--7-7-7--7-7-|  
----------------------------|--5--5--5--5--5--5-5-5------|  
----------------------------|----------------------------|  
 
 
*Leadsolo  
----4----4--4-5-4/----------|-------------------------------|  
----4-4--4--4-4-4/---x-x-x--|----------10--10---------------|  
----6-6--6--6-6-6/---x-x-x--|*--11--13------------13--11--9-|  
--6---6--6--6-6-6/---x-x-x--|-------------------------------|  
--4---4--4--4-4-4/---x-x-x--|*------------------------------|  
----------------------------|-------------------------------|  
 
 
Let ring  
----------------------------|-----------------------------|------------------|  
--------9--9----------------|------9--10--9---------------|------------------|  
----11----------11--11--11--|--11--------------11--9--11--|-----------------*|  
----------------------------|-----------------------------|------------------|  
----------------------------|-----------------------------|-----------------*|  
----------------------------|-----------------------------|------------------|  
 
 
Opktakt til omkv' 
-----------------------------|--------------------------------------||  
------9--10--9---------------|--------------------------------------||  
--11--------------11--9--11--|----11--11--11-11-11-11-11--11--11-11-||  
-----------------------------|----11--11--11-11-11-11-11--11--11-11-||  
-----------------------------|----9---9---9--9--9--9--9---9---9--9--||  
-----------------------------|--------------------------------------||  
 
 
Form:  
Intro:  
Intro/vers-riff 1x  
1. Vers:  
Vers-riff 2x  
"efter 1. vers" 1x  
2.vers  
Vers-riff 2x  
"efter 2.og 3. vers" 1x  
Omkv'  
Spil Omkv'1x  
3.vers  
Vers-riff 2x  
"efter 2.og 3. vers" 1x  
Omkv'  
Spil Omkv'1x  
SOLO:  
Spil solo  
Spil leadsolo 2x  
Spil "optakt til omkv' 1x ("yeeaaaaah" delen")  
Spil omkv'1x  
g'il CODA  
spil CODA 1x
		   
AcordesyTabs.com © 2008 Acordes y Tablaturas para guitarra. Tabs and Chords for guitar. Aviso Legal - Contacto
El uso de este sitio está sujeto a la aceptación de los términos y condiciones (29 usuarios online)