tablaturas, partituras y acordes para guitarra
Busca por banda/artista:
 
y/o título de la canción:
A B C D E F G H I J K L M N O P Q R S T U V W X Y Z 0 1 2 3 4 5 6 7 8 9 / Top 100 tabs
Categorías
Usuarios
usuario:
Darse de alta
password:
Artistas más visitados
Publicidad
TOP acordes y tablaturas de Dizzy mizz lizzy


Break
de Dizzy mizz lizzy
Puntúa este acorde/tab:      
(0.4/5)
Reportar este acorde/tab
  Añadir a tus favoritos
  Imprimir
D-------------------------------------------------------------------------------------| 
A-------------------------------------------------------------------------------------| 
F-------------------------------------------------------------------------------------| 
C-------------------------------------------------------------------------------------| 
G-2-h5-2-h5-2-h5-2-h5-2-h5-2-h5-2-h5-2-h5-2-h6-2-h6-2-h6-2-h6-2-h6-2-h6-2-h6-2-h6-6-7-| 
D-------------------------------------------------------------------------------------| 
 
 
Main riff: 
 
D------------------------------------|------------------------------------| 
A------------------------------------|------------------------------------| 
F------------------------------------|------------------------------------| 
C---9-----------------0--------------|------------------0-----------------| 
G---7--7--2--5-2h5-------2-*-4-2h4---|-7-----2-5-2-5-------2-4-2h4--------| 
D------------------3-*-------------0-|----------------3--------------0----| 
 
 
 
 
D------------------------------------|------------------------------------| 
A------------------------------------|------------------------------------| 
F------------------------------------|------------------------------------| 
C---9-----------------0--------------|-------------------0----------------| 
G---7--7--2--5-2h5-------2-*-4-2h4---|-7-----2--5-2h5-------2-4-2h4--5--7-| 
D------------------3-*-------------0-|-----------------3------------------| 
 
 
     Clean                Distort    (repeat) 
 
D--------------------|----------------------------------------------------------------| 
A--------------------|----------------------------------------------------------------| 
F--------------------|--9-------9-----------------------------------------9-----------| 
C--5-6-6-5-6-5-6-6-6-|--9-------9----6--6-6--7--7--7-10-10-7-7-8-8-8-8-8--9-----------| 
G--------------------|--7-------7----7--7-7--7--7--7-7--7--7-7-7-7-7-7-7--7-----------| 
D--------------------|-----0-0-----------------------------------------------0-0------| 
 
 
(Chorus)    distort    (repeat) 
 
D---------------------------------|-----------------------| 
A---------------------------------|-----------------------| 
F---------------------------------|-----------------------| 
C--9-9-9-9--6-6-6--7-7-7--7-7-7-7-|-9-9-*-*--7-7-7--8-8---| 
G--7-7-7-7--7-7-7--7-7-7--5-5-5-5-|-7-7-*-*--5-5-5--6-6---| 
D---------------------------------|-----------------------| 
 
 
Reapeat 
 
D------------------------------------|---------------------------------------| 
A------------------------------------|---------------------------------------| 
F------------------------------------|---------------------------------------| 
C---9-----------------0--------------|-------------------0-------------------| 
G---7--7--2--5-2h5-------2-*-4-2h4---|-7-----2--5-2h5-------2-4-2h4--5--7--9-| 
D------------------3-*-------------0-|-----------------3---------------------| 
 
 
 
D--------------------------------------------------------------------| 
A---------9----------------9--------------9--------------10----------| 
F-------9----9---------9------9--------9----9--------9------9--------| 
C-----7--------7-----7---7------7----7--------7----7---7------7------| 
G--9--------------9----------------9-------------9--------------9----| 
D--------------------------------------------------------------------| 
                                       
 
D-----------------------------------------------------------------------------------------| 
A-----------------------------------------------------------------------------------------| 
F-----------------------------------------------------------------------------------------| 
C-----------------------------------------------------------------------------------------| 
G--------------------------------------------------------------------2---------6-6--5-5---| 
D--0--0-0-0--0--0-0--0--0-0--0--0-0-4--4-4-3-3--3-3-0-0-0-0--0--0-0--0--0-0-0--4-4--3-3---|
		   
AcordesyTabs.com © 2008 Acordes y Tablaturas para guitarra. Tabs and Chords for guitar. Aviso Legal - Contacto
El uso de este sitio está sujeto a la aceptación de los términos y condiciones (35 usuarios online)