tablaturas, partituras y acordes para guitarra
Busca por banda/artista:
 
y/o título de la canción:
A B C D E F G H I J K L M N O P Q R S T U V W X Y Z 0 1 2 3 4 5 6 7 8 9 / Top 100 tabs
Categorías
Usuarios
usuario:
Darse de alta
password:
Artistas más visitados
Publicidad
TOP acordes y tablaturas de Dizzy mizz lizzy


Glory
de Dizzy mizz lizzy
Puntúa este acorde/tab:      
(0.4/5)
Reportar este acorde/tab
  Añadir a tus favoritos
  Imprimir
Fig. 1:  
|-----------------------|-----------------------|--------------------------|  
|--------6-----------4--|--------7-----------6--|--------6-----------7-----|  
|-----3-----3-----3-----|-----5-----5-----5-----|-----6-----6-----6-----6--|  
|--4-----------4--------|--6-----------6--------|--8-----------8-----------|  
|-----------------------|-----------------------|--------------------------|  
|-----------------------|-----------------------|--------------------------|  
 
|-----------------------|-----------------------|-----------------------|  
|--------9-----------9--|--------6-----------4--|--------4-----------2--|  
|-----6-----6-----6-----|-----3-----3-----3-----|-----2-----2-----2-----|  
|--8-----------8--------|--4-----------4--------|--3-----------3--------|  
|-----------------------|-----------------------|-----------------------|  
|-----------------------|-----------------------|-----------------------|  
Fig. 2:  
|---------------------------|--------------|  
|---------------------------|--------------|  
|------(2)--3-3-------------|--------3--5--|  
|-(3)-----------3-3---------|------3-------|  
|-------------------4-4-----|----4---------|  
|-----------------------6---|--6-----------|  
Fig. 3:  
|---------------------------|  
|---------------------------|  
|--3-x---6-x---6-x---8-(8)--|  
|--3-x---6-x---5-x---7-(7)--|  
|--1-x---4-x---6-x---8-(8)--|  
|---------------------------|  
Fig. 4: (Dizzy plays this a little diffrent, by this worked better for us)  
|-----------------------------------------------------------------|  
|-----------------------------------------------------------------|  
|------3-------3-------6-------6-------6-------6-------8-------8--|  
|----3---3---3---3---6---6---6---6---5---5---5---5---7---7---7----|  
|--1-------1-------4-------4-------6-------6-------8-------8------|  
|-----------------------------------------------------------------|  
Fig. 5:  
|----------------|  
|----------------|  
|------9-------9-|  
|---8---8---8----|  
|-9-------9------|  
|----------------|  
 
Fig. 6:  
|-----------------------|-----------------------|--------------------------|  
|--------7-----------5--|--------8-----------7--|--------7-----------8-----|  
|-----4-----4-----4-----|-----6-----6-----6-----|-----7-----7-----7-----7--|  
|--5-----------5--------|--7-----------7--------|--9-----------9-----------|  
|-----------------------|-----------------------|--------------------------|  
|-----------------------|-----------------------|--------------------------|  
 
|-----------------------|-----------------------|-----------------------|  
|--------10----------10-|--------7-----------5--|--------5-----------3--|  
|-----7-----7-----7-----|-----4-----4-----4-----|-----3-----3-----3-----|  
|--9-----------9--------|--5-----------5--------|--4-----------4--------|  
|-----------------------|-----------------------|-----------------------|  
|-----------------------|-----------------------|-----------------------|  
Fig. 7:  
|---------------------------|--------------|  
|---------------------------|--------------|  
|------(3)--4-4-------------|--------4--6--|  
|-(4)-----------4-4---------|------4-------|  
|-------------------5-5-----|----5---------|  
|-----------------------7---|--7-----------|  
 
Play it in this order:  
Intro:  
------  
Fig. 1;  
Fig. 2;  
Fig. 1  
 
Vers 1:  
-------  
 
Fig. 3; Fig. 3;  
Fig. 3; Fig. 3;  
Fig. 4;  
Fig. 3; Fig. 3;  
Fig. 3; Fig. 3;  
Fig. 4;  
 
Chorus:  
-------  
 
Fig. 1;  
Fig. 2;  
Fig. 1  
 
Vers 2:  
-------  
Fig. 3; Fig. 3;  
Fig. 3; Fig. 3;  
Fig. 4;  
 
Chorus:  
-------  
Fig. 1;  
Fig. 2;  
Fig. 1  
 
Solo (I can't play THAT)  
 
"Outro":  
 
Fig. 4; Fig. 5;  
Fig. 6; Fig. 7;  
Fig. 6; Fig. 7;  
Fig. 6
		   
AcordesyTabs.com © 2008 Acordes y Tablaturas para guitarra. Tabs and Chords for guitar. Aviso Legal - Contacto
El uso de este sitio está sujeto a la aceptación de los términos y condiciones (36 usuarios online)