tablaturas, partituras y acordes para guitarra
Busca por banda/artista:
 
y/o título de la canción:
A B C D E F G H I J K L M N O P Q R S T U V W X Y Z 0 1 2 3 4 5 6 7 8 9 / Top 100 tabs
Categorías
Usuarios
usuario:
Darse de alta
password:
Artistas más visitados
Publicidad
TOP acordes y tablaturas de Dizzy mizz lizzy


Estás en: Inicio > Letra D > Acordes y tablaturas de Dizzy mizz lizzy > Love is a loser's game
Love is a loser's game
de Dizzy mizz lizzy
Puntúa este acorde/tab:      
(0.4/5)
Reportar este acorde/tab
  Añadir a tus favoritos
  Imprimir
RIFF 1/1  
 
E-------------------------------------  
H-------6---4---3-------3~4-3---------  
G-----5---5---5-------5-------5-------  
D-------------------------------------  
A-------------------------------------  
E-4---------------5-------------------  
 
RIFF 1/2  
 
E-------3-------------  
H-------------6~6-----  
G-----3---3-----------  
D---------------------  
A---------------------  
E-6-------------------  
 
Riff 2/1  
E---------------------------------------------------------  
H---------------------------------------------------------  
G-----------------------------------------4-4-4-4-5-5-5-5-  
D-5-5-5-5-6-6-6-6-6-6-6-6-6-6-6-6-6-6-6-6-5-5-5-5-6-6-6-6-  
A-3-3-3-3-3-3-3-3-4-4-4-4-4-4-4-4-5-5-5-5-----------------  
E---------------------------------------------------------  
 
Riff 2/2  
E---------------------------------------  
H---------------------------------------  
G-7-8-5-7-7-7-7-7-7-7-7-5-5-5-5-4-4-4-4-  
D-6-6-6-6-6-6-6-6-6-6-6-5-5-5-5-5-5-5-5-  
A---------------------------------------  
E---------------------------------------  
 
Riff 2/3  
E-----------------------------------  
H-----------------------------------  
G-5--5--3--3--2--2------------------  
D-5--5--3--3--3--3--------6-5-3-3---  
A-3--3--1--1--0--0----------------6-  
E-----------------------------------  
 
Riff 3  
E-----------------------------------3----------------------------  
H-----------------------------------5----------5-6-5---------3-4-  
G-5--5--3--3--2--2------------------5----------------5-----4-----  
D-5--5--3--3--3--3--------6-5-3-3---5------------------5-5-------  
A-3--3--1--1--0--0----------------6------------------------------  
E----------------------------------------------------------------  
 
 
Form Riff 1, Riff2. Riff 1, Riff 2/1 Riff 2/2 Riff 3 Riff 2:
		   
AcordesyTabs.com © 2008 Acordes y Tablaturas para guitarra. Tabs and Chords for guitar. Aviso Legal - Contacto
El uso de este sitio está sujeto a la aceptación de los términos y condiciones (35 usuarios online)