tablaturas, partituras y acordes para guitarra
Busca por banda/artista:
 
y/o título de la canción:
A B C D E F G H I J K L M N O P Q R S T U V W X Y Z 0 1 2 3 4 5 6 7 8 9 / Top 100 tabs
Categorías
Usuarios
usuario:
Darse de alta
password:
Artistas más visitados
Publicidad
TOP acordes y tablaturas de Dizzy mizz lizzy


Estás en: Inicio > Letra D > Acordes y tablaturas de Dizzy mizz lizzy > Love me a little
Love me a little
de Dizzy mizz lizzy
Puntúa este acorde/tab:      
(0/5)
Reportar este acorde/tab
  Añadir a tus favoritos
  Imprimir
Band: 
 
Tabbed by: Mads
Mads@e-box.dk



                   Chorus/Intro
G|--------------7p6--------5p4----5---------------------7p6--------5p4----5-------------------------------|
D|--(2/)--7-7-------7---5-------5-----------7------7-7-------7---5-------5----------------------------------|
A|---------------------------------------5-7-----------------------------------------------------------------------|
E|------------------------------------------------------------------------------------------------------------------|
        (2) play it only the first time in the intro

             Verse
G|-------------------------------------------------------------------------------------------------------------------|
D|-------------------------------------------------------------------------------------------------------------------|
A|-------5p4------3p2---3---------------5p4------3p2---3----------------------------------------------------|
E|--5-5------5--3------3---0-2-3---5-5------5--3------3------------------------------------------------------|

              Bridge
G|--------------------------------------------------------------------------------------------------------------------|
D|--------------------------------------------------------------------------------------------------------------------|
A|--3------1------0--------------3------1------0-------------------------5-5-5-5-5-5--------------------------|
E|-------------------------4-----------------------------4-------5--5--5-------------------3--4--5---------------|

                            Fill 1
G|--------------------------------------------------------------------------------------------------------------------|
D|------------------------------------------------------------------5--3---------------------------------------------|
A|-------5p4------3p2---2-------------------5p4-------3p2---------5--3---------------------------------------|
E|--5-5------5--3------3---0-2-3------5-5-------5--3------3---------------------------------------------------|

                            Fill 2
G|--------------------------------------------------------------------------------------------------------------------|
D|--------------------------------------------------------------------------------------------------------------------|
A|----------5-5-5-5-5-5-------------------------------------------------------------------------------------------|
E|--5-5-5-----------------3-4-5---4--5--6-----------------------------------------------------------------------|

Playmap:
Intro/Chorus  *8
Verse            *1
Fill 1              *1
Verse            *2
Chorus          *4
Verse            *4
Chorus          *4
Bridge           *1
Chorus          *4
Verse            *1
Fill 1              *1
Verse            *2
Chorus          *4
Bridge           *1                                         
Chorus          *6                                                                                                                Hej alle Udleaninge der ikke
Fill 2              *1                                                                                              kan forstaa Dansk i har pikhoveder a gaer
		   
AcordesyTabs.com © 2008 Acordes y Tablaturas para guitarra. Tabs and Chords for guitar. Aviso Legal - Contacto
El uso de este sitio está sujeto a la aceptación de los términos y condiciones (27 usuarios online)