tablaturas, partituras y acordes para guitarra
Busca por banda/artista:
 
y/o título de la canción:
A B C D E F G H I J K L M N O P Q R S T U V W X Y Z 0 1 2 3 4 5 6 7 8 9 / Top 100 tabs
Categorías
Usuarios
usuario:
Darse de alta
password:
Artistas más visitados
Publicidad
TOP acordes y tablaturas de Dizzy mizz lizzy


Estás en: Inicio > Letra D > Acordes y tablaturas de Dizzy mizz lizzy > Take it or leave it
Take it or leave it
de Dizzy mizz lizzy
Puntúa este acorde/tab:      
(0.4/5)
Reportar este acorde/tab
  Añadir a tus favoritos
  Imprimir
Intro: (dette er ogs Riff 1.)  
 
E||----------------------------------------------|  
B||----0------0-----------0---------------------|  
G||------0------0?0-------0----2p0----0------|  
D||?2------2-----2----3-------3-------3--------|  
A||----------------------------------------------|  
E||----------------------------------------------|  
 
E||-----------------------------------------------|  
B||----0------0-----------0----------------------|  
G||------0------0?0-------0----2p0----0------|  
D||?2------2-----2----3-------3-------3--------|  
A||-----------------------------------------------|  
E||-----------------------------------------------|  
 
E||-----------------------------------------------|  
B||---------1---------1---------0?1p0----0---|  
G||------2----2?2----2----2----2-------2-----|  
D||---4---------4--------------------------------|  
A||-------------------------2--------------------|  
E||-----------------------------------------------|  
 
E||-----------------------------------------------|  
B||-----0-------3------3----5--5----------------|  
G||--------0-------0------4----------------------|  
D||?2--------2-------2---------------------------|  
A||-----------------------------------------------|  
E||-----------------------------------------------|  
 
 
 
 
 
(riff 1. f? 2 takter gentages)  
/:/In your garden  
i try to fall asleep/:/  
i try to fall asleep  
 
riff 2.  
E||---------------------------------------------|  
B||---------------------------------------------|  
G||-------0--------0---------0---------0------|  
D||----5--------4--------5---------4----------|  
A||?7-------5--------7---------5--------------|  
E||?0-----------------0------------------------|  
 
 
 
 
 
riff 3.  
E||--------------------------------------------------|  
B||--------------------------------------------------|  
G||-------0-------0--------0---------0---------0---|  
D||----5-------7---------9-------10-------12------|  
A||?7-------9-------10------12-------14-----------|  
E||?-------------------------------------------------|  
 
(riff 2)  
Sister Mary  
walking on the wall  
Sister Mary  
heading for a fall  
Sister Mary  
waiting for a call  
Sister Mary  
Pride before a fall (riff 3)  
 
C  
So many moments  
D E  
all i really needed was the one  
C  
so many moments  
D  
i have been mistreated  
A  
playings done  
D G  
pretty soon I?m gonna run  
 
 
(omk: best?kun af power akk. Med A strengen som bas)  
G F# E F# E  
/:/Take it or leave it  
D D F# E  
?cause i don't care  
G F# E F# E  
you better believe it  
D C B  
I?m down there  
G F# E F# E  
take it or leave it  
D D F# E  
?cause i don't care  
E E E F# G F#  
I come out of the blue/:/  
E E E F# G F# D E  
bringing dark days for you  
 
(Riff 2)  
Sister Mary  
walking on the grass  
Sister Mary  
breathing on the glass  
Sister Mary  
looking at the past  
Sister Mary  
you've got peace at last  
 
So many moments  
all i really needed was the one  
so many moments  
i have been mistreated  
playings done  
pretty soon I?m gonna run  
 
 
Take it or leave it......  
 
/:/in your garden  
i try to stay awake/:/  
try to stay awake
		   
AcordesyTabs.com © 2008 Acordes y Tablaturas para guitarra. Tabs and Chords for guitar. Aviso Legal - Contacto
El uso de este sitio está sujeto a la aceptación de los términos y condiciones (36 usuarios online)