tablaturas, partituras y acordes para guitarra
Busca por banda/artista:
 
y/o título de la canción:
A B C D E F G H I J K L M N O P Q R S T U V W X Y Z 0 1 2 3 4 5 6 7 8 9 / Top 100 tabs
Categorías
Usuarios
usuario:
Darse de alta
password:
Artistas más visitados
Publicidad
TOP acordes y tablaturas de Dizzy mizz lizzy


Estás en: Inicio > Letra D > Acordes y tablaturas de Dizzy mizz lizzy > Thorn in my pride
Thorn in my pride
de Dizzy mizz lizzy
Puntúa este acorde/tab:      
(0.5/5)
Reportar este acorde/tab
  Añadir a tus favoritos
  Imprimir
INTRO: 
 
D||------------------------------|------------------------------| 
A||--------------6--6--6-6-6-6-6-|--------------6--6--6-6-6-6-6-| 
F||--7--7--7-7-7-7--7--7-7-7-7-7-|--7--7--7-7-7-7--7--7-7-7-7-7-| 
C||--0--0--0-0-0-0--0--0-0-0-0-0-|--0--0--0-0-0-0--0--0-0-0-0-0-| 
G||------------------------------|------------------------------| 
D||------------------------------|------------------------------| 
 
 
                                                          
----------------------------|---------------------------| 
----------------------------|---------------------------| 
----------------------------|--------------6--6--6-6----| 
-----5--5-5-5-5--5--5--5--5-|--7--7--7-7-7-7--7--7-7----| 
----------------------------|--0--0--0-0-0-0--0--0-0----| 
--3--3--3-3-3-6--6--6--6--6-|---------------------------| 
 
 
Her starter band...                                             
------------------------------|------------------------------| 
--------------6--6--6-6-6-6-6-|--------------6--6--6-6-6-6-6-| 
--7--7--7-7-7-7--7--7-7-7-7-7-|--7--7--7-7-7-7--7--7-7-7-7-7-| 
--0--0--0-0-0-0--0--0-0-0-0-0-|--0--0--0-0-0-0--0--0-0-0-0-0-| 
------------------------------|------------------------------| 
------------------------------|------------------------------| 
 
 
                                                            
----------------------------|-----------------------------| 
----------------------------|-----------------------------| 
----------------------------|--------------6--6--6-6-6-6--| 
-----5--5-5-5-5--5--5--5--5-|--7--7--7-7-7-7--7--7-7-7-7--| 
----------------------------|--0--0--0-0-0-0--0--0-0-0-0--| 
--3--3--3-3-3-6--6--6--6--6-|-----------------------------| 
 
 
 
---------------------------|---------------------------| 
---------------------------|---------------------------| 
--7--7--7-7-7-7--7---7--7--|--7--7--7-7-7-7--7---7--7--| 
--0--0--0-0-0-0--0---0--0--|--0--0--0-0-0-0--0---0--0--| 
---------------------------|---------------------------| 
---------------------------|---------------------------| 
 
 
                                                         
-------------------------|-----------------------------| 
-------------------------|-----------------------------| 
--7--7---7--6--6--6---6--|-----------------------------| 
--0--0---0---------------|----2------------------------| 
------------4--4--4---4--|---------5----4----4h5-4--2--| 
-------------------------|--2----2----2----2-----------| 
 
 
                                
-----------------------------|| 
-----------------------------|| 
-----------------------------|| 
-----------------------------|| 
----2------------------------|| 
--2----2-5--2-4--2-4h5-4--2/-|| 
 
 
VERS: 
                                                         
D||---------------------------|------------------------| 
A||--9---10---9---10---9-10---|--8---8---8---8---8-8---| 
F||--9---9----9---9----9-9----|--6---7---6---7---6-7---| 
C||---------------------------|------------------------| 
G||---------------------------|------------------------| 
D||---------------------------|------------------------| 
 
 
                                                                                 
---------------------------|-----------------------|---------------------------| 
--9---10---9---10---9-10---|----8-----8--8--8-8----|--9---10---9---10---9-10---| 
--9---9----9---9----9-9----|----7-----6--7--6-7----|--9---9----9---9----9-9----| 
---------------------------|-----------------------|---------------------------| 
---------------------------|-----------------------|---------------------------| 
---------------------------|-----------------------|---------------------------| 
 
 
                                                                              
------------------------|---------------------------|-----------------------| 
--8---8---8---8---8-8---|--9---10---9---10---9-10---|----8-----8--8--8-8----| 
--6---7---6---7---6-7---|--9---9----9---9----9-9----|----7-----6--7--6-7----| 
------------------------|---------------------------|-----------------------| 
------------------------|---------------------------|-----------------------| 
------------------------|---------------------------|-----------------------| 
 
 
                                 
------------------------------|| 
-----8-8-8-8-8-8-8-8-8-8------|| 
-----7-7-7-7-7-7-7-7-7-7------|| 
------------------------------|| 
--7----------------------7---|| 
------------------------------|| 
 
 
CHORUS 
 
                                                                
D||-----------------------------|-----------------------------| 
A||--------------6--6-6--6-6-6--|--------------6--6-6--6-6-6--| 
F||--7--7--7-7-7-7--7-7--7-7-7--|--7--7--7-7-7-7--7-7--7-7-7--| 
C||--0--0--0-0-0-0--0-0--0-0-0--|--0--0--0-0-0-0--0-0--0-0-0--| 
G||-----------------------------|-----------------------------| 
D||-----------------------------|-----------------------------| 
 
 
                                                             
-----------------------------|-----------------------------| 
-----------------------------|-----------------------------| 
-----------------------------|--------------6--6-6--6-6-6--| 
--5--5--5-5---5--5-5--5-5-5--|--7--7--7-7-7-7--7-7--7-7-7--| 
-----------------------------|--0--0--0-0-0-0--0-0--0-0-0--| 
--3--3--3-3-5-6--6-6--6-6-6--|-----------------------------| 
 
 
                                                             
-----------------------------|-----------------------------| 
--------------6--6-6--6-6-6--|--------------6--6-6--6-6-6--| 
--7--7--7-7-7-7--7-7--7-7-7--|--7--7--7-7-7-7--7-7--7-7-7--| 
--0--0--0-0-0-0--0-0--0-0-0--|--0--0--0-0-0-0--0-0--0-0-0--| 
-----------------------------|-----------------------------| 
-----------------------------|-----------------------------| 
 
 
                                                             
-----------------------------|-----------------------------| 
-----------------------------|-----------------------------| 
--7--7--7-7-7-7-6--6--6-6-6--|-----------------------------| 
--0--0--0-0-0-0--------------|----2------------------------| 
----------------4--4--4-4-4--|---------5----4----4h5-4--2--| 
-----------------------------|--2----2----2----2-----------| 
 
 
                                
-----------------------------|| 
-----------------------------|| 
-----------------------------|| 
-----------------------------|| 
----2------------------------|| 
--2----2-5--2-4--2-4h5-4--2-|| 
 
 
SOLO: 
 
                                                                
D||-----------------------------|-----------------------------| 
A||-----------------------------|-----------------------------| 
F||-----------------------------|-----------------------------| 
C||----2------------------------|-----------------------------| 
G||---------5----4----4h5-4--2--|----2------------------------| 
D||--2----2----2----2-----------|--2----2-5--2-4--2-4-5-4--2--| 
 
 
                                                             
-----------------------------|-----------------------------| 
-----------------------------|-----------------------------| 
-----------------------------|-----------------------------| 
-----------------------------|-----------------------------| 
----5----3----2----2-3-2--0--|-----------------------------| 
--0----0----0----0-----------|--0-5--0-3--0-2--0-2-3-2--0--| 
 
 
                                                             
-----------------------------|-----------------------------| 
-----------------------------|-----------------------------| 
-----------------------------|-----------------------------| 
-----------------------------|-----------------------------| 
----5----3----2----2-3-2--0--|-----------------------------| 
--0----0----0----0-----------|--0-5--0-3--0-2--0-2-3-2--0--| 
 
 
                                                            
---------------------------|------------------------------| 
-------7------------9------|------------------------------| 
----------9----9/11--------|---------7----------9h11-9----| 
-----------------------11--|-----7/9----9--9/11-----------| 
---------------------------|--0---------------------------| 
--5------------------------|------------------------------| 
 
 
                                                          
----------------------------|---------------------------| 
----------------------------|---------------------------| 
---------7------------6-----|---------4--------2h4-2----| 
-----7/9----9-----5/7----7--|-----4h5----5--2-----------| 
--0------------0------------|--0------------------------| 
----------------------------|---------------------------| 
 
 
  Gtr2 kommer ind her:                                                
-----------------------------|---------------------------| 
-----------------------------|---------------------------| 
---------7------------9------|---------7--------6h7-6----| 
-----7/9----9----9/11----11--|-----7/9----9--5-----------| 
--0--------------------------|--0------------------------| 
-----------------------------|---------------------------| 
 
 
                                                                     
-----------------------------|-------------------------------------| 
-----------------------------|-------------------------------------| 
---------7------------9------|--11-11------------------------------| 
-----7/9----9----9/11----11--|--9--9--0-0-9-9-9-11-0-0-9-0-0-0-0-0-| 
--0--------------------------|-------------------------------------| 
-----------------------------|-------------------------------------| 
 
 
 Solo backing herfra...                                                              
------------------------------|------------------------------| 
--------------6--6-6--6-6-6-6-|--------------6--6-6--6-6-6-6-| 
--7--7--7-7-7-7--7-7--7-7-7-7-|--7--7--7-7-7-7--7-7--7-7-7-7-| 
--0--0--0-0-0-0--0-0--0-0-0-0-|--0--0--0-0-0-0--0-0--0-0-0-0-| 
------------------------------|------------------------------| 
------------------------------|------------------------------| 
 
 
                                                               
------------------------------|------------------------------| 
------------------------------|------------------------------| 
------------------------------|------------------------------| 
--5--5--5-5-5-5--5-5--5-5-5-5-|--5--5--5-5-5-5--5-5--5-5-5-5-| 
------------------------------|------------------------------| 
--3--3--3-3-3-6--6-6--6-6-6-6-|--3--3--3-3-3-6--6-6--6-6-6-6-| 
 
 
                                                               
------------------------------|------------------------------| 
--------------6--6-6--6-6-6-6-|--------------6--6-6--6-6-6-6-| 
--7--7--7-7-7-7--7-7--7-7-7-7-|--7--7--7-7-7-7--7-7--7-7-7-7-| 
--0--0--0-0-0-0--0-0--0-0-0-0-|--0--0--0-0-0-0--0-0--0-0-0-0-| 
------------------------------|------------------------------| 
------------------------------|------------------------------| 
 
 
             Jeg er ikke sikker p?t den sidste takt skal med   
                       					|| 
							      / 
------------------------------|------------------------------|| 
------------------------------|------------------------------|| 
------------------------------|------------------------------|| 
--5--5--5-5-5-5--5-5--5-5-5-5-|--5--5--5-5-5-5--5-5--5-5-5-5-|| 
------------------------------|------------------------------|| 
--3--3--3-3-3-6--6-6--6-6-6-6-|--3--3--3-3-3-6--6-6--6-6-6-6-|| 
 
OUTRO VARIATION 
 
D||-----------------------------------|-|-----------------------------| 
A||-----------------------------------|*|-----------------------------| 
F||-----------------------------------|-|-----------------------------| 
C||--4--4--4-4-4/-11-11-11-11-11-11-11|-|----2------------------------| 
G||-----------------------------------|*|---------5----4----4h5-4--2--| 
D||--2--2--2-2-2/-9--9--9--9--9--9--9-|-|--2----2----2----2-----------| 
 
 
                         
----------------------|| 
----------------------|| 
----------------------|| 
----------------------|| 
----2-----------------|| 
--2-----5---2--------|| 
 
 
FORM FOR GUITAR 1: 
 
Intro 
Vers 
Chorus 
Vers 
Chorus 
Solo 
Chorus m. Outro variation til slut (m. gentagelse) 
 
TABS TIL GUITAR 2: 
 
INTRO 
 
D||--|--|--|--|-----------------------------|-----------------------------| 
A||--|--|--|--|-----------------------------|-----------------------------| 
F||--|--|--|--|--7--7--7-7-7-7--7-7--7-7-7--|--7--7--7-7-7-7--7-7--7-7-7--| 
C||--|--|--|--|--0--0--0-0-0-0--0-0--0-0-0--|--0--0--0-0-0-0--0-0--0-0-0--| 
G||--|--|--|--|-----------------------------|-----------------------------| 
D||--|--|--|--|-----------------------------|-----------------------------| 
 
 
                                                             
-----------------------------|-----------------------------| 
-----------------------------|-----------------------------| 
-----------------------------|--7--7--7-7-7-7--7-7--7-7-7--| 
--5--5--5-5-5-5--5-5--5-5-5--|--0--0--0-0-0-0--0-0--0-0-0--| 
-----------------------------|-----------------------------| 
--3--3--3-3-3-3--3-3--3-3-3--|-----------------------------| 
 
 
                                                             
-----------------------------|-----------------------------| 
-----------------------------|-----------------------------| 
--7--7--7-7-7-12--11---14---|--7--7--7-7-7-12--11---14---| 
-----------------------------|-----------------------------| 
--5--5--5-5-5-10--9----12---|--5--5--5-5-5-10--9----12---| 
-----------------------------|-----------------------------| 
 
 
                                                                     
----------------------------|------------------|------------------|| 
----------------------------|------------------|------------------|| 
--12--12---12---6--6---6-6--|------------------|------------------|| 
----------------------------|------------------|------------------|| 
--10--10---10---4--4---4-4--|------------------|------------------|| 
----------------------------|------------------|------------------|| 
 
CHORUS: 
D||-----------------------------|-----------------------------| 
A||-----------------------------|-----------------------------| 
F||--7--7--7-7-7-7--7-7--7-7-7--|--7--7--7-7-7-7--7-7--7-7-7--| 
C||-----------------------------|-----------------------------| 
G||--5--5--5-5-5-5--5-5--5-5-5--|--5--5--5-5-5-5--5-5--5-5-5--| 
D||-----------------------------|-----------------------------| 
 
 
                                                             
-----------------------------|-----------------------------| 
-----------------------------|-----------------------------| 
-----------------------------|-----------------------------| 
--5--5--5-5-5-5--5-5--5-5-5--|--7--7--7-7-7-7--7-7--7-7-7--| 
-----------------------------|-----------------------------| 
--3--3--3-3-3-3--3-3--3-3-3--|--5--5--5-5-5-5--5-5--5-5-5--| 
 
 
                                                             
-----------------------------|-----------------------------| 
-----------------------------|-----------------------------| 
--7--7--7-7-7-7--7-7--7-7-7--|--7--7--7-7-7-7--7-7--7-7-7/-| 
-----------------------------|-----------------------------| 
--5--5--5-5-5-5--5-5--5-5-5--|--5--5--5-5-5-5--5-5--5-5-5/-| 
-----------------------------|-----------------------------| 
 
 
                                                          
---------------------------------|------------------|--|| 
---------------------------------|------------------|--|| 
--12--12--12-12-12--6--6--6-6-6-|------------------|--|| 
---------------------------------|------------------|--|| 
--10--10--10-10-10--4--4--4-4-4-|------------------|--|| 
---------------------------------|------------------|--|| 
 
SOLO: 
 
D||--|--|--|--|--|--|--|--|--|--|------------------------------| 
A||--|--|--|--|--|--|--|--|--|--|------------------------------| 
F||--|--|--|--|--|--|--|--|--|--|---------7----------9h11-9----| 
C||--|--|--|--|--|--|--|--|--|--|-----7/9----9--9/11-----------| 
G||--|--|--|--|--|--|--|--|--|--|--0---------------------------| 
D||--|--|--|--|--|--|--|--|--|--|------------------------------| 
 
 
              WAH WAH HERFRA   OG RESTEN AF SOLOEN
----------------------------|--x~x~x~x~x~x~x~x~----------------| 
----------------------------|--x~x~x~x~x~x~x~x~----------------| 
-----------7-------------6~-|--x~x~x~x~x~x~x~x~7~7~7~7~7~7~7~7~| 
-------7/9----9--9/11~7~----|--x~x~x~x~x~x~x~x~----------------| 
--0-------------------------|--x~x~x~x~x~x~x~x~5~5~5~5~5~5~5~5~| 
----------------------------|--x~x~x~x~x~x~x~x~----------------| 
 
 
                                       
-------------------------------------| 
-------------------------------------| 
--7~-7~-7~7~7~10~-10~10~12~12~12~12~-| 
-------------------------------------| 
--5~-5~-5~5~5~-----------------------| 
-------------------------------------| 
 
 
                                                  
------------------------------------------------| 
-----10~13~---10~13~---10~13~---10~13~---10~----| 
--12b------12b------12b------12b------12b---10~-| 
------------------------------------------------| 
------------------------------------------------| 
------------------------------------------------| 
 
 
                                                 
-------------------13b----13~---13~15~15r13~15~| 
--15~-15~-15~15~15~----15~---15~---------------| 
-----------------------------------------------| 
-----------------------------------------------| 
-----------------------------------------------| 
-----------------------------------------------| 
 
 
                                                                          
--13----------------------------------|--10~--13~--9~--10~--16~17~16~17~| 
------15--15-15-15-13---0----0--------|---------------------------------| 
--------------------------10---10-x-x-|--7~---10~--6~--7~---13~14~13~14~| 
--------------------------------------|---------------------------------| 
--------------------------------------|---------------------------------| 
--------------------------------------|---------------------------------| 
 
 
                                                                               
--16~17~13~15~----16~17~16~17~13~---------|--x~x~x-x~x~x~x~x~x~x~x~x~x~x~x~x~| 
--------------12~-----------------12~-x~x~|--x~x~x-x~x~x~x~x~x~x~x~x~x~x~x~x~| 
--13~14~10~12~----13~14~13~14~10~-----x~x~|--x~x~x-x~x~x~x~x~x~x~x~x~x~x~x~x~| 
--------------9------------------9~--x~x~|--x~x~x-x~x~x~x~x~x~x~x~x~x~x~x~x~| 
--------------------------------------x~x~|--x~x~x-x~x~x~x~x~x~x~x~x~x~x~x~x~| 
------------------------------------------|----------------------------------| 
 
(Kaos. Bare spil en masse larm meget hurtigt) 
                                                                                 
--9/9/9/9/9/9/9/9/9/9/9/9/9/9/9/9/9/9/9/9/9/9/9/9/9/9/9/9/9/9/9/9/9/9/9/10/10/10 
--9/9/9/9/9/9/9/9/9/9/9/9/9/9/9/9/9/9/9/9/9/9/9/9/9/9/9/9/9/9/9/9/9/9/9/10/10/10 
--9/9/9/9/9/9/9/9/9/9/9/9/9/9/9/9/9/9/9/9/9/9/9/9/9/9/9/9/9/9/9/9/9/9/9/10/10/10 
--x~x~x~x~x~x~x~x~x-x-x~x-x-x~x-x-x~x~x~x~x~x~x-x~x-x~x~x~x~x~x~x~x~x~x~x~-x~-x- 
--x~x~x~x~x~x~x~x~x-x-x~x-x-x~x-x-x~x~x~x~x~x~x-x~x-x~x~x~x~x~x~x~x~x~x~x~-x~-x- 
--x~x~x~x~x~x~x~x~x-x-x~x-x-x~x-x-x~x~x~x~x~x~x-x~x-x~x~x~x~x~x~x~x~x~x~x~-x~-x- 
 
 
     
--|| 
--|| 
--|| 
--|| 
--|| 
--|| 
 
 
OUTRO VARIATION: 
D||--------------------------------|-|--|--|| 
A||--------------------------------|*|--|--|| 
F||---------------11-11-11--11--11-|-|--|--|| 
C||--4--4--4-4-4/------------------|-|--|--|| 
G||---------------9--9--9---9---9--|*|--|--|| 
D||--2--2--2-2-2/------------------|-|--|--||
		   
AcordesyTabs.com © 2008 Acordes y Tablaturas para guitarra. Tabs and Chords for guitar. Aviso Legal - Contacto
El uso de este sitio está sujeto a la aceptación de los términos y condiciones (37 usuarios online)