tablaturas, partituras y acordes para guitarra
Busca por banda/artista:
 
y/o título de la canción:
A B C D E F G H I J K L M N O P Q R S T U V W X Y Z 0 1 2 3 4 5 6 7 8 9 / Top 100 tabs
Categorías
Usuarios
usuario:
Darse de alta
password:
Artistas más visitados
Publicidad
TOP acordes y tablaturas de Dizzy mizz lizzy


Waterline
de Dizzy mizz lizzy
Puntúa este acorde/tab:      
(0.5/5)
Reportar este acorde/tab
  Añadir a tus favoritos
  Imprimir
D||-------------------|-------------------------------| 
A||-------------------|-----------------------------9-| 
F||----------------*9-|----10--13--14--13--9---x---| 
C||-------------------|---------------------------x-6-| 
G||-----------------7-|----8---11--12--118---7---x---| 
D||-------------------|-------------------------------| 
 
                                (Rytmen ?rer sig.......|)                               
------------10-----------------|------------------------------| 
----10--12------10/12--9---x-x-|--10-9------10-9------10-9----| 
------------7--------------x-x-|--------9---------7---------6-| 
----7---9-------7/-9---6---x-x-|--7--6------7--6------7--6--7-| 
-------------------------------|--------7---------5---------7-| 
-------------------------------|----------------------------5-| 
 
 
                         *? gang                                  
---------------------------|-------------------------------| 
--------------------8-8----|-----------------------------9-| 
------6--x-x-7--x-x-7-7--9-|----10--13--14--13--9---x---| 
------7--x-x-7--x-x-7-7-*--|---------------------------x-6-| 
------7--x-x-5--x-x------7-|----8---11--12--118---7---x---| 
------5--x-x----x-x--------|-------------------------------| 
 
                                                                
------------10-----------------|------------------------------| 
----10--12------10/12--9---x-x-|--10-9------10-9------10-9----| 
------------7--------------x-x-|--------9---------7---------6-| 
----7---9-------7/-9---6---x-x-|--7--6------7--6------7--6--7-| 
-------------------------------|--------7---------5---------7-| 
-------------------------------|----------------------------5-| 
 
 
         *Slut W.riff    #Fill 1-                           Slut fill 1                 
---------------------------|-----------------------|---------------------| 
--------------------8-8----|-----------------------|---------------------| 
------6--x-x-7--x-x-7-7----|-----9--7--------------|---------------------| 
------7--x-x-7--x-x-7-7*---|-----------------------|---------------------| 
------7--x-x-5--x-x--------|-----7--5------------2-|------3----4----5----| 
------5--x-x----x-x-----#0-|---0-------5h6p5-4-3-0-|------1----2----3----| 
 
 
  Intro 2  (clean)                                                          
----------------------------|-------------------------------| 
-------6------------6-------|-------6-------8---6-----------| 
-----7------7-----7------7--|-----7-----7-----------6---7---| 
--5------5-----5------5-----|--5------5---5---5---5---5-----| 
----------------------------|-------------------------------| 
----------------------------|-------------------------------| 
 
 
  
----------------------------|---------------------------------| 
-------6------------6-------|-------6-------8---6-------------| 
-----7------7-----7------7--|-----7-----7-7---------6---7-----| 
--5------5-----5------5-----|--5------5-5-5---5---5---5---5-5-| 
----------------------------|---------------------------------| 
----------------------------|---------------------------------| 
 
 
  Vers, Riff 1                                         Slut riff 1                   
----------------------------|-------------------------------| 
-------6------------6-------|-------6---8---6---------------| 
-----7------7-----7------7--|-----7-------------8---6---7---| 
--5------5-----5------5-----|--5------5---5---5---5---5-----| 
----------------------------|-------------------------------| 
----------------------------|-------------------------------| 
 
 
   Riff 2                                                           
--------------------------------|---------------------------| 
-------6-------8---6------------|------4------------4-------| 
-----7-----7-----------7---6--5-|----5------5-----5------5--| 
--5------5---5---5---5---5-4--3-|--------3-----3------3-----| 
--------------------------------|---------------------------| 
--------------------------------|---------------------------| 
 
				     	 
                                |1 (slut riff 2)         
--------------------------------|------------------| 
-------4-------6---4------------|------------------| 
-----5-----5-----------5---6--7-|------------------| 
--3------3---3---3---3---3-4--5-|------------------| 
--------------------------------|------------------| 
--------------------------------|------------------| 
  
|2                                              (dist.)              Slut riff 2 
--------------------------------|-------------|--------------------------------| 
-------4-------6---4------------|-------------|------8-------10---8------------| 
-----5-----5-----------5---6--7-|------7--8-9-|----9-----9------------8---9----| 
--3------3---3---3---3---3-4--5-|------5--6-7-|--------7---7----7---7---7---7-| 
--------------------------------|-------------|--------------------------------| 
--------------------------------|-------------|--------------------------------| 
 
 
 
 Pre-chorus                                                                       
----------------------|------------------------|----------------------| 
----------------------|--------------5----4----|----------------------| 
--2----2----4----4----|--7----7----x-4--x-4----|--2----2----4----4----| 
--2----2----4----4----|--7----7----x-4--x-4----|--2----2----4----4----| 
--0----0----2----2----|--5----5----x-2--x-2----|--0----0----2----2----| 
----------------------|------------------------|----------------------| 
 
                                    Slut Pre-chorus                    
-------------|-------------------|--------------------| 
-------------|--5----------------|--4----------------| 
--7--7--7---|--4----------------|--4--------------9-| 
--7--7--7---|--4----------------|--4----------------| 
--5--5--5---|--2----------------|--2--------------7-| 
-------------|-------------------|--------------------| 
 
 
 #Slut W.riff s?n her  *Post-chorus                                   
----------------------------|--------0-0-------0-0---------| 
---------------------8-8----|------------------------------| 
-#6----6--x-x-7--x-x-7-7----|----2h4-------2h4-------2h4p2-| 
--7----7--x-x-7--x-x-7-7-*2-|------------------------------| 
--7----7--x-x-5--x-x--------|------------------------------| 
--5----5--------------------|------------------------------| 
 
|--------0-0-------2h0---------| 
|------------------------------| 
|----2h4-------2h4-------2h4p2-| 
|-0----------------------------| 
|------------------------------| 
|------------------------------| 
                                                     Slut post-chorus          
---------0-0-------0-0---------|-----------------------------| 
-------------------------------|-----5-5-5-5-----8--8--8-----| 
-----2h4-------2h4-------2h4p2-|-----5-5-5-5-x-x-7--7--7-----| 
-------------------------------|-----5-5-5-5-x-x-7--7--7-----| 
--4----------------------------|--3--3-3-3-3-x-x-5--5--5-----| 
-------------------------------|---------------------------0-| 
 
 
                         *Fill2        		    Slut fill 2
---------------------------|---------------------------| 
--------------------8-8----|---------------------------| 
------6--x-x-7--x-x-7-7----|-----9--7------------------| 
------7--x-x-7--x-x-7-7----|---------------------------| 
------7--x-x-5--x-x--------|-----7--5------------2-----| 
------5--x-x----x-x-----*0-|---0-------5h6p5-4-3-0-----| 
 
 
Fill-in til riff 2, slut fill-in Riff 1b                                              
---------------8---7---5---7----|--------------------------| 
-------6---------6---6---6------|--------------------------| 
-----7-----7--------------------|--------------------------| 
--5------5---5---------------7--|-------3-----------4------| 
--------------------------------|-----5----5------5----5---| 
--------------------------------|--3-----------3-----------| 
 
 
              Slut riff 1b  Fill-in B til riff 2                  slut fill-in B
--------------------------|---------------------------|-----------------------| 
--------------------------|---------------------------|---------------4-------| 
--------------------------|---------------------------|-------------5------5--| 
-------3-----5--3---------|-------3-----5--4----------|----------3------3-----| 
-----5----5--------4--5---|-----5----5--------5--4--3/|-----------------------| 
--3-----------------------|--3------------------------|-----------------------| 
 
						'=Palm-mute 
   Fill in til riff 1 (gtr 2)     Riff 1C                                                    
-------------------------------|--------------------------| 
-------6---8---6---------------|-----'-6---------'-6------| 
-----7-------------8---6---7---|--'--7----7---'--7----7---| 
--5------5---5---5---5---5-----|--5-----------5-----------| 
-------------------------------|--------------------------| 
-------------------------------|--------------------------| 
 
 
               Slut Riff 1C  Fillin B til riff 2                             
---------------------------|----------------------------| 
-----'-6-----6h8-6---------|-------6-----6h8-6----------| 
--'--7----7---------6--7---|-----7----7---------7--6--5| 
--5------------------------|--5-------------------------| 
---------------------------|----------------------------| 
---------------------------|----------------------------| 
 
 
            Slut Fillin B              
-----------------------|| 
---------------4-------|| 
-------------5------5--|| 
----------3------3-----|| 
-----------------------|| 
-----------------------|| 
 
 
CODA: 
 
|--------0-0-------2h0---------| 
|------------------------------| 
|----2h4-------2h4-------2h4p2-| 
|-2----------------------------| 
|------------------------------| 
|------------------------------| 
 
|--------0-0-------2h0---------| 
|------------------------------| 
|----2h4-------2h4-------2h4p2-| 
|-0----------------------------| 
|------------------------------| 
|------------------------------| 
 
                                                     Slut CODA          
---------0-0-------2h0---------|-----------------------------| 
-------------------------------|-----5-5-5-5-----8--8--8-----| 
-----2h4-------2h4-------2h4p2-|-----5-5-5-5-x-x-7--7--7-----| 
-------------------------------|-----5-5-5-5-x-x-7--7--7-----| 
--4----------------------------|--3--3-3-3-3-x-x-5--5--5-----| 
-------------------------------|-----------------------------| 
 
 
 
 
VIGTIGT! 
Medmindre der er et # eller * tegn, starter og slutter p?ldende riff/fill/fill-in 
med den takt hvor teksten st? 
 
FORM: 
 
INTRO: 
Waterline riffet, 1x 
Fill 1, 1x 
...Intro 2 
VERS: 
Riff 1, 2x 
Riff 2 (1. slutning) 
Riff 1, 2x 
Riff 2 (2. slutning) 
Prechorus... 
CHORUS: 
Waterline riffet, 1x 
Post chorus, 2x 
Fill 1, 1x 
...Intro 2 
VERS: 
Riff 1, 2x 
Riff 2 (1. slutning, m. Fillin til Riff 2 i sidste takt) 
Riff 1b, 2x 
Riff 2 (2. slutning, m. Fillin-B til Riff 2 i de 2 f? takter) 
Prechorus... 
CHORUS. 
Waterline riffet, 1x 
Post chorus, 1x s?il CODA p?fm?ede sted
		   
AcordesyTabs.com © 2008 Acordes y Tablaturas para guitarra. Tabs and Chords for guitar. Aviso Legal - Contacto
El uso de este sitio está sujeto a la aceptación de los términos y condiciones (31 usuarios online)