tablaturas, partituras y acordes para guitarra
Busca por banda/artista:
 
y/o título de la canción:
A B C D E F G H I J K L M N O P Q R S T U V W X Y Z 0 1 2 3 4 5 6 7 8 9 / Top 100 tabs
Categorías
Usuarios
usuario:
Darse de alta
password:
Artistas más visitados
Publicidad
TOP acordes y tablaturas de Dizzy mizz lizzy


Estás en: Inicio > Letra D > Acordes y tablaturas de Dizzy mizz lizzy > When the river runs dry
When the river runs dry
de Dizzy mizz lizzy
Puntúa este acorde/tab:      
(0.3/5)
Reportar este acorde/tab
  Añadir a tus favoritos
  Imprimir
INTRO                                                      
E||----------------------------------|-------------------------------| 
B||----------------------------------|-------------------------------| 
G||----------------------------------|------------------10-9---7-5---| 
D||----------------------------------|-------------------------------| 
A||----7-----7---7-7---8-----8---8-8-|----5-----5---5-x-8--7---5-3---| 
E||--5---5-5---5-----5---5-5---5-----|--3---3-3---3------------------| 
 
 
                                                                      
----------------------------------|---------------------------------| 
----------------------------------|---------------------------------| 
----------------------------------|------------------14-12---10-9---| 
----------------------------------|---------------------------------| 
----7-----7---7-7---8-----8---8-8-|----5-----5---5-x-12-10---8--7---| 
--5---5-5---5-----5---5-5---5-----|--3---3-3---3--------------------| 
 
 
                                                                    
----------------------------------|-------------------------------| 
----------------------------------|-------------------------------| 
----------------------------------|------------------10-9---7-5---| 
----------------------------------|-------------------------------| 
----7-----7---7-7---8-----8---8-8-|----5-----5---5-x-8--7---5-3---| 
--5---5-5---5-----5---5-5---5-----|--3---3-3---3------------------| 
 
 
                                                                          
----------------------|-------------------|-----------------------------| 
----------------------|-------------------|-----------------------------| 
--4----4----4----4----|--2----------------|-----------------------------| 
--1----1----2----2----|--2----------------|-----------------------------| 
--2----2----2----2----|--0----------------|--7--7--8--8-9--9--9-9-9-9-9-| 
----------------------|-------------------|--5--5--6--6-7--7--7-7-7-7-7-| 
 
VERS 
                                                               
-----------------------------|-------------------------------| 
-----------------------------|-------------------------------| 
-----------------------------|-------------------------------| 
-----------------------------|-------------------------------| 
--7--7--8--8-9--9--9-9-9-9-9-|--7--7--8--8-9--9--9-10-10-x-x-| 
--5--5--6--6-7--7--7-7-7-7-7-|--5--5--6--6-7--7--7-8--8--x-x-| 
 
 
                                                                  
----------------------------------|-----------------------------| 
----------------------------------|-----------------------------| 
--12----10----9------4--4-4-4-x-x-|-----------------------------| 
--10--x-10--x---10-x-3--3-3-3-x-x-|-----------------------------| 
--8-----8-----8-------------------|--7--7--8--8-9--9--9-9-9-9-9-| 
----------------------------------|--5--5--6--6-7--7--7-7-7-7-7-| 
 
 
                                                               
-----------------------------|-------------------------------| 
-----------------------------|-------------------------------| 
-----------------------------|-------------------------------| 
-----------------------------|-------------------------------| 
--7--7--8--8-9--9--9-9-9-9-9-|--7--7--8--8-9--9--9-10-10-x-x-| 
--5--5--6--6-7--7--7-7-7-7-7-|--5--5--6--6-7--7--7-8--8--x-x-| 
 
 
                                                                  
----------------------------------|-----------------------------| 
----------------------------------|-----8----6---5--------------| 
--12----10----9------4--4-4-4-x-x-|-----5--x-5-x-5-x-4---4--x-x-| 
--10--x-10--x---10-x-3--3-3-3-x-x-|--0---------------0---0--x-x-| 
--8-----8-----8-------------------|-----------------------------| 
----------------------------------|-----------------------------| 
 
 
                                                  
---------------------------|-------------------|| 
---------------------------|--2----------------|| 
--12-----10-----9-----7----|--2----------------|| 
---------------------------|--2----------------|| 
--10--0--8---0--7--0--5----|--0----------------|| 
---------------------------|-------------------|| 
 
CHORUS: 
                                                                 
E||-----------------------------|------------------------------| 
B||-----3-2-------7-5----3-2----|------------------------------| 
G||-----4-2-------7-5----4-2----|-----------------2-3-2--------| 
D||-----------------------------|--2----2-4-2-----2-2-2--4-----| 
A||--0--------0-0-----0------0--|--3--3---3-3-3-3-3-3-3--3--3--| 
E||-----------------------------|------------------------------| 
 
 
                                                              
-----------------------------|------------------------------| 
-----3-2-------7-5----3-3----|-------3--------------3-2-----| 
-----4-2-------7-6----4-3----|--2--2-2----4----2--------4-2-| 
-----------------------------|--3--3---3--3--3----3-----3---| 
--0--------0-0-----0------0--|------------------------------| 
-----------------------------|------------------------------| 
 
 
                                                             
-----------------------------|-----------------------------| 
-----3-2-------7-5----3-2----|----------------2-3-2--------| 
-----4-2-------7-5----4-2----|---------4-2----2-2-2--4-----| 
-----------------------------|--2--3-3-3-3-3--3---3--3--3--| 
--0--------0-0-----0------0--|--3--------------------------| 
-----------------------------|-----------------------------| 
 
 
                                                            
-----------------------------|----------------------------| 
-----3-2-------7-5----3-2-3--|----------------------------| 
-----4-2-------7-5----4-2-4--|----------------------------| 
-----------------------------|--2----2----4----2----2-----| 
--0--------0-0-----5---------|--3--3---3-----3---3--3--3--| 
-----------------------------|----------------------------| 
 
 
                                               2. Gang omkv?t spilles:                     
--------------------------|-------------------|-----------------------------| 
-----------------------3--|--2----------------|-----3-2-------7-5----3-2----| 
--2--2--2--2--------------|--2----------------|-----4-2-------7-5----4-2----| 
--2--2--2--2--1--1--1-----|--2----------------|-----------------------------| 
--0--0--0--0--2--2--2-----|--0----------------|--0--------0-0-----0------0--| 
--------------------------|-------------------|-----------------------------| 
 
 
                                                              
------------------------------|-----------------------------| 
------------------------------|-----3-2-------7-5----3-3----| 
-----------------2-3-2--------|-----4-2-------7-6----4-3----| 
--2----2-4-2-----2-2-2--4-----|-----------------------------| 
--3--3---3-3-3-3-3-3-3--3--3--|--0--------0-0-----0------0--| 
------------------------------|-----------------------------| 
 
 
                                                              
------------------------------|-----------------------------| 
-------3--------------3-2-----|-----3-2-------7-5----3-2----| 
--2--2-2----4----2--------4-2-|-----4-2-------7-5----4-2----| 
--3--3---3--3--3----3-----3---|-----------------------------| 
------------------------------|--0--------0-0-----0------0--| 
------------------------------|-----------------------------| 
 
 
                                                             
-----------------------------|-----------------------------| 
----------------2-3-2--------|-----3-2-------7-5----3-2-3--| 
---------4-2----2-2-2--4-----|-----4-2-------7-5----4-2-4--| 
--2--3-3-3-3-3--3---3--3--3--|-----------------------------| 
--3--------------------------|--0--------0-0-----5---------| 
-----------------------------|-----------------------------| 
 
 
                                                          
----------------------------|--------------------------|| 
----------------------------|--------------------------|| 
----------------------------|--2--2--2--2--1--x--x-----|| 
--2----2----4----2----2-----|--2--2--2--2--2--x--x-----|| 
--3--3---3-----3---3--3--3--|--0--0--0--0--------------|| 
----------------------------|-----------------------0--|| 
 
SOLO/interlude 
 
Denne del best?af 2 guitarer, 
og i mods?ing til Rotator skal begge med for at det lyder rigtigt. 
 
GUITAR 1:                                             
E||----------------------------------------| 
B||----------------------------------------| 
G||--4--------4-----4-----------4----------| 
D||--3--x--x--3--x--3--x--x--x--3--3-4-5-6-| 
A||--2--x--x--2--x--2--x--x--x--2--2-3-4-5-| 
E||--1--x--x--1--x--1--x--x--x--1--1-2-3-4-| 
 
 
                                          
----------------------------------------| 
----------------------------------------| 
--8--x--x--8--x--8--x--x--x--8----------| 
--7--x--x--7--x--7--x--x--x--7--7-6-5-4-| 
--6--x--x--6--x--6--x--x--x--6--6-5-4-3-| 
--5--x--x--5--x--5--x--x--x--5--5-4-3-2-| 
 
 
                                                                     
----------------------------------------|--------------------------| 
----------------------------------------|--------------------------| 
--4--x--x--4--x--4--x--x--x--4----------|--8--x-----8--x--8--x--x--| 
--3--x--x--3--x--3--x--x--x--3--3-4-5-6-|--7--x-----7--x--7--x--x--| 
--2--x--x--2--x--2--x--x--x--2--2-3-4-5-|--6--x-----6--x--6--x--x--| 
--1--x--x--1--x--1--x--x--x--1--1-2-3-4-|--5--x--0--5--x--5--x--x--| 
 
 
                          /*GUITAR "OVERDUB" **GUITAR 2 STARTER I DENNE TAKT-- 
		
-------------------------|--|--|--|--|-------------------------------| 
-------------------------|--|--|--|--|-------------------------------|       
--x--8--x--x-----8/------|--|--|--|--|-------------------------------| 
--x--7--x--x-----7------|--|--|--|--|--7--7-7-7-7-7--7-7-7-7-7-7-7--| 
--x--6--x--x-----6------|--|--|--|--|-------------------------------| 
-----5--x--x--0--5/-x----|--|--|--|--|--5--5-5-5-5-5--5-5-5-5-5-5-5--| 
 
 
                                                                 
-------------------------------|-------------------------------| 
-------------------------------|-------------------------------| 
-------------------------------|-------------------------------| 
--3--3-3-3-3-3--3-3-3-3-3-3-3--|--7--7-7-7-7-7--7-7-7-7-7-7-7--| 
-------------------------------|-------------------------------| 
--1--1-1-1-1-1--1-1-1-1-1-1-1--|--5--5-5-5-5-5--5-5-5-5-5-5-5--| 
 
 
                                                                 
-------------------------------|-------------------------------| 
-------------------------------|-------------------------------| 
-------------------------------|-------------------------------| 
--3--3-3-3-3-3--3-3-3-3-3-3-3--|--7--7-7-7-7-7--7-7-7-7-7-7-7--| 
-------------------------------|-------------------------------| 
--1--1-1-1-1-1--1-1-1-1-1-1-1--|--5--5-5-5-5-5--5-5-5-5-5-5-5--| 
 
 
                                                                 
-------------------------------|-------------------------------| 
-------------------------------|-------------------------------| 
-------------------------------|-------------------------------| 
--3--3-3-3-3-3--3-3-3-3-3-3-3--|--7--7-7-7-7-7--7-7-7-7-7-7-7--| 
-------------------------------|-------------------------------| 
--1--1-1-1-1-1--1-1-1-1-1-1-1--|--5--5-5-5-5-5--5-5-5-5-5-5-5--| 
 
 
                                  
-------------------------------|| 
-------------------------------|| 
-------------------------------|| 
--3--3-3-3-3-3--3-3-3-3-3-3-3--|| 
-------------------------------|| 
--1--1-1-1-1-1--1-1-1-1-1-1-1--|| 
 
E||-------------------------------|-------------------------------| 
B||-------------------------------|-------------------------------| 
G||-------------------------------|-------------------------------| 
D||--7--7-7-7-7-7--7-7-7-7-7-7-7--|--3--3-3-3-3-3--3-3-3-3-3-3-3/-| 
A||-------------------------------|-------------------------------| 
E||--5--5-5-5-5-5--5-5-5-5-5-5-5-|--1--1-1-1-1-1--1-1-1-1-1-1-1--| 
 
 
                                                                 
-------------------------------|-------------------------------| 
-------------------------------|-------------------------------| 
-------------------------------|-------------------------------| 
--7--7-7-7-7-7--7-7-7-7-7-7-7--|--3--3-3-3-3-3--3-3-3-3-3-3-3/-| 
-------------------------------|-------------------------------| 
--5--5-5-5-5-5--5-5-5-5-5-5-5-|--1--1-1-1-1-1--1-1-1-1-1-1-1--| 
 
 
                                                                 
-------------------------------|-------------------------------| 
-------------------------------|-------------------------------| 
-------------------------------|-------------------------------| 
--7--7-7-7-7-7--7-7-7-7-7-7-7--|--3--3-3-3-3-3--3-3-3-3-3-3-3/-| 
-------------------------------|-------------------------------| 
--5--5-5-5-5-5--5-5-5-5-5-5-5-|--1--1-1-1-1-1--1-1-1-1-1-1-1--| 
 
 
                                                                 
-------------------------------|-------------------------------| 
-------------------------------|-------------------------------| 
-------------------------------|-------------------------------| 
--7--7-7-7-7-7--7-7-7-7-7-7-7--|--3--3-3-3-3-3--3-3-3-3-3-3-3/-| 
-------------------------------|-------------------------------| 
--5--5-5-5-5-5--5-5-5-5-5-5-5-|--1--1-1-1-1-1--1-1-1-1-1-1-1--| 
 
 
                                                              
 
** GUITAR 2: (LEAD GUITAR) 
E||------------------------------| 
B||--14-------------------14/15~| 
G||----------12~---14~-14~-------| 
D||--11-------------------11/12~| 
A||----------10~---12~-12~-------| 
E||------------------------------| 
 
 
                                                         
----------------------------|--------------------------| 
--14-----------------------|--14~-15/---17~---14------| 
----------12~---14~---14/15~|--------------------------| 
--11-----------------------|--11~-12/---14~---11------| 
----------10~---12~---11/12~|--------------------------| 
----------------------------|--------------------------| 
 
 
                                                          
------------------------|-------------------------------| 
------------------------|----------------14~14~14~14---| 
--16-----12~---10~-----|--9~--14~--16~-----------------| 
------------------------|----------------11~11~11~11---| 
--14-----10~---8~------|--7~--12~--14~-----------------| 
------------------------|-------------------------------| 
 
 
                                                                 
----------------------------|----------------------------------| 
----------------------15~---|--14~--15~17~-------17/15~14~-15~-| 
--10~--14~--17~--16~--------|--------------12~-----------------| 
----------------------12~---|--11~--12~14~-------14/12~11~-12~-| 
--8~---12~--15~--14~--------|--------------10~-----------------| 
----------------------------|----------------------------------| 
 
 
                                   
-------10/12~-------------------|| 
--------------------------------|| 
--10~--7/-9~--14~--12~--12~-x~x~|| 
----------------------------x~x~|| 
--8~----------12~--10~--10~-x~x~|| 
--------------------------------|| 
 
 
 
*GUITAR 2 "OVERDUB" i h?h?er. 
 
E||----------------------------|-----------------------------| 
B||----------------------------|-----------------------------| 
G||---------------1--2--1------|----------------4--2--1------| 
D||-----2h3--2-----------------|--2h3--2---3-----------------| 
A||----------------------------|-----------------------------| 
E||--0---------0-----------0-0-|---------0----0/---------0-0-| 
 
 
                                                                               
------------------------------|---------------------------| 
------------------------------|---------------------------| 
-----1h2---1----4h5---4---5---|--7~7~7~7~-7~-7~-7~-7~7~---| 
------------------------------|---------------------------| 
------------------------------|---------------------------| 
--0------0---0------0---0-----|---------------------------| 
 
 
*GUITAR 1 "OVERDUB" I VENSTRE H?TALER 
E||----------------------------|-----------------------------| 
B||----------------------------|-----------------------------| 
G||---------------1--2--1------|----------------4--2--1------| 
D||-----2h3--2-----------------|--2h3--2---3-----------------| 
A||--0-------------------------|-----------------------------| 
E||------------0-----------0-0-|---------0----0----------0-0-| 
 
 
                                                                
------------------------------|-------------------------------| 
------------------------------|-------------------------------| 
------------------------------|--4-4-4-4----4-4-4-4----4-4----| 
-----2h3---2----1h2---1---2---|-------------------------------| 
------------------------------|-------------------------------| 
--0------0---0------0---0-----|----------0----------0------x--| 
 
 
OUTRO  
-------------------------------|----------------------------| 
-------------------------------|-----8----6---5----------x--| 
--12--x-10--x-9---x--------x-x-|-----5--x-5-x-5-x-4---4--x--| 
--10--x-10--x-10--x-9---9--x-x-|--0---------------0---0--x--| 
--8---x-8---x-8---x-8---8--x-x-|----------------------------| 
-------------------------------|----------------------------| 
"YES YOU KNOW BY NOW! YES YOU KNOW BY NOW...." 
 
                                                         
----------------------------|--------------------------| 
----------------------------|--------------------------| 
--12-----10-----9-----7-----|-----------6--------------| 
----------------------------|--------5-----5-----------| 
--10--0--8---0--7--0--5--0--|-----4-----------4-----4--| 
----------------------------|--3-----------------3-----| 
 
 
                                                              
-------------------------------|----------------------------| 
-------------------------------|-----8----6---5----------x--| 
--12--x-10--x-9---x--------x-x-|-----5--x-5-x-5-x-4---4--x--| 
--10--x-10--x-10--x-9---9--x-x-|--0---------------0---0--x--| 
--8---x-8---x-8---x-8---8--x-x-|----------------------------| 
-------------------------------|----------------------------| 
 
 
                               Let ring                                      
----------------------------|-------------------|------------------| 
----------------------------|--2----------------|------------------| 
--12-----10-----9-----7-----|--2----------------|------------------| 
----------------------------|--2----------------|------------------| 
--10--0--8---0--7--0--5--0--|--0----------------|------------------| 
----------------------------|-------------------|------------------| 
 
 
                                                                    
----------------------------------|-------------------------------| 
----------------------------------|-------------------------------| 
----------------------------------|------------------10-9---7-5---| 
----------------------------------|-------------------------------| 
----7-----7---7-7---8-----8---8-8-|----5-----5---5-x-8--7---5-3---| 
--5---5-5---5-----5---5-5---5-----|--3---3-3---3---x--------------| 
 
 
 
                                                   
----------------------|-------------------------|| 
----------------------|-------------------------|| 
--4----4----4----4----|--2--------------2-------|| 
--1----1----2----2----|--2------------2---------|| 
--2----2----2----2----|--0----------0-----------|| 
----------------------|-----------0-------------|| 
 
 
Det var s?abben. 
Den kunne desv?e ikke v? mere overskuelig end det her. 
Her er s?ormen: 
 
Intro 
Vers 
Chorus 
Vers 
Chorus (Med 2. slutning) 
Interlude 
Interlude "overdub" 
Solo 
Outro
		   
AcordesyTabs.com © 2008 Acordes y Tablaturas para guitarra. Tabs and Chords for guitar. Aviso Legal - Contacto
El uso de este sitio está sujeto a la aceptación de los términos y condiciones (28 usuarios online)