tablaturas, partituras y acordes para guitarra
Busca por banda/artista:
 
y/o título de la canción:
A B C D E F G H I J K L M N O P Q R S T U V W X Y Z 0 1 2 3 4 5 6 7 8 9 / Top 100 tabs
Categorías
Usuarios
usuario:
Darse de alta
password:
Artistas más visitados
Publicidad
TOP acordes y tablaturas de 3 Doors Down


Loser
de 3 Doors Down
Puntúa este acorde/tab:      
(0.8/5)
Reportar este acorde/tab
  Añadir a tus favoritos
  Imprimir
3 Doors Down - Loser
       from "The Better Life" 

Written and Performed by : 
3 Doors Down

Tabbed by :
Florian Möbes



h = hammer on
 = slide
x = Ghost Note

Standard Tuning


Verses-Riff 

Play with Acoustic or Clean Electric

   F#      D               F#      D  

---2-2-2---2---2-----2-----2-2-2---2------------
---2-2-2---3-----3-----3---2-2-2---3------------
---3-3-3---2-------2-------3-3-3---2------------
---4-4-4---0---------------4-4-4---0------------
---4-4-4-------------------4-4-4-------0h2-0----
---2-2-2-------------------2-2-2----------------

Chorus-Riff

Play with heavy distortion 

  E5   F#5      D5   E5

--------------------------------
--------------------------------
-----------------7-7------------
---2-2--4-x-x-4--5-5--2-x-x-2---
---2-2--4-x-x-4--5-5--2-x-x-2---
---0-0--2-x-x-2-------0-x-x-0---


Bridge-Riff (played after 2nd chorus)

Play with heavy distortion 

       

--------------------------
--------------------------
---------54--------------
---2--4--54--2-2--3--4---
---2--4--32--2-2--3--4---
---0--2-------0-2--1--2---

       Play 3 times
          
then

   E5       C5B5  E5   F5  F#5
--------------------------------
--------------------------------
------------54-----------------
---2--x-x---54----2-x--3---4---
---2--x-x---32----2-x--3---4---
---0--x-x----------0-x--1---2---


Order:

Verses Riff 
Chorus Riff
Verses Riff
Chorus Riff
Bridge Riff
Bridge Riff (with muted Chords)
Verses Riff (while Lead Guitar plays Solo)
Chorus Riff


This is perfectly correct. I´ve been playing to the CD many times and it sounds 
I just don´t know how to play the solo. If you know how to play it send it to me

fmoebes@gmx.de (Florian Möbes)



		   
AcordesyTabs.com © 2008 Acordes y Tablaturas para guitarra. Tabs and Chords for guitar. Aviso Legal - Contacto
El uso de este sitio está sujeto a la aceptación de los términos y condiciones (35 usuarios online)