tablaturas, partituras y acordes para guitarra
Busca por banda/artista:
 
y/o título de la canción:
A B C D E F G H I J K L M N O P Q R S T U V W X Y Z 0 1 2 3 4 5 6 7 8 9 / Top 100 tabs
Categorías
Usuarios
usuario:
Darse de alta
password:
Artistas más visitados
Publicidad
TOP acordes y tablaturas de Dropkick murphys


Estás en: Inicio > Letra D > Acordes y tablaturas de Dropkick murphys > World full of fate
World full of fate
de Dropkick murphys
Puntúa este acorde/tab:      
(0.4/5)
Reportar este acorde/tab
  Añadir a tus favoritos
  Imprimir
band: dropkick murphys 
 song: world full of hate   
tabbed by Thompson Vo (psychobillypnr@yahoo.com)         
 
intro: guitar 2 (play the parts that are in the ( ) only through out the intro) 
 
1:------------------------------------------------------------------------3--| 
2:-------------------------------------------------------1----------------3--| 
3:-----------------------------------------------0---------0--------------0--| 
4:-(0)--------------0-0-0-0--2-2-2-2h0---------2---2---2------------------0--| 
5:----(2)(0)------2--------------------3-0h2-3-------3-------3-3-3-2---0--2--| 
6:------------3-3----------------------------------------------------3----3--| 
 
This way sound better but they both sound right so you can choose which one you want to play. 
 
1:------------------------------------------------------------------------3--| 
2:--------------------------------------------------------1---------------3--| 
3:-----------------------------------------------0----------0-------------0--| 
4:-(0)--------------0-0-0-0--2-2-2-2h0---------2---2----2-----------------0--| 
5:----(2)(0)----0h2--------------------3-0h2-3-------3-------3-3-3-2---0--2--| 
6:------------3------------------------------------------------------3----3--| 
 
intro/verse: guitar 1               guitar 2                  
                               
1:--3--0--0--0--0--0--0--|          ---------------3-------| 
2:--3--1--1--1--1--1--1--|          ---------------3-------| 
3:--0--2--0--0--0--0--2--|          ---------------0-------| 
4:--0--2--2--0--0--0--2--|          ---------------0-------| 
5:--2--0--3--2--0--2--0--|          --3--2--0---0--2-------| 
6:--3-----0--0-----3-----|          ----------3----3-------| 
 
it sounds better this way 
 
-----------3--0--0--2------------------------------------------| 
-----------3--1--1--3------------------------------------------| 
-----------0--0--2--2------------------------------------------| 
-----------0--2--2--0------------------------------------------| 
-----------2--3--0---------------------------------------------| 
-----------3-----0---------------------------------------------| 
 
thats all hope it helps. 
Listen to the song for how many strums there are
		   
AcordesyTabs.com © 2008 Acordes y Tablaturas para guitarra. Tabs and Chords for guitar. Aviso Legal - Contacto
El uso de este sitio está sujeto a la aceptación de los términos y condiciones (32 usuarios online)