tablaturas, partituras y acordes para guitarra
Busca por banda/artista:
 
y/o título de la canción:
A B C D E F G H I J K L M N O P Q R S T U V W X Y Z 0 1 2 3 4 5 6 7 8 9 / Top 100 tabs
Categorías
Usuarios
usuario:
Darse de alta
password:
Artistas más visitados
Publicidad
TOP acordes y tablaturas de Hamlet


Estás en: Inicio > Letra H > Acordes y tablaturas de Hamlet > Legalizar
Legalizar
de Hamlet
Puntúa este acorde/tab:      
(0.6/5)
Reportar este acorde/tab
  Añadir a tus favoritos
  Imprimir
NOTACION

>= mantener el sonido
PM= palm muted (si va seguido de una línea de puntos hacerlo
hasta donde termine la línea de puntos)

------------------------------------------------------------
------------------------------------------------------------

AFINACION

Afinación en C (C,F,Bb,Eb,G,C): afina todas las cuerdas de
la guitarra cuatro semitonos menos

------------------------------------------------------------
------------------------------------------------------------


-----
INTRO (x3)
-----


----------------------------------------------
----------------------------------------------
--------------------------10--10--9--9--8--8--
--7--7--7--7--7--7--7--7--10--10--9--9--8--8--
--7--7--7--7--7--7--7--7---8---8--7--7--6--6--
--5--5--5--5--5--5--5--5---8---8--7--7--6--6--

----------------------------------------------
----------------------------------------------
----------------------------------------------
--7--7--7--7--7--7--7--7--10--10--9--9--8--8--
--7--7--7--7--7--7--7--7--10--10--9--9--8--8--
--5--5--5--5--5--5--5--5---8---8--7--7--6--6--

----------------------------------------------
----------------------------------------------
--------------------------10--10--9--9--8--8--
--7--7--7--7--7--7--7--7--10--10--9--9--8--8--
--7--7--7--7--7--7--7--7---8---8--7--7--6--6--
--5--5--5--5--5--5--5--5---8---8--7--7--6--6--

--------------------------------------------------
--------------------------------------------------
--7--7--7--7--7--7--7--7--8--8--8--8--8--8--8--8--
--7--7--7--7--7--7--7--7--8--8--8--8--8--8--8--8--
--5--5--5--5--5--5--5--5--6--6--6--6--6--6--6--6--
--5--5--5--5--5--5--5--5--6--6--6--6--6--6--6--6--


-----
VERSO (Como voy a dejar de lado está ocasión...) (x2)
-----


--------------------------------------------
--------------------------------------------
--------------------7--7--7--7--7--7--7--7-- (x3)
--7--7--5--5--7--7--7--7--7--7--7--7--7--7--
--7--7--5--5--7--7--5--5--5--5--5--5--5--5--
--5--5--3--3--5--5--5--5--5--5--5--5--5--5--

--------------------------------------------------
--------------------------------------------------
--8--8--8--8--8--8--8--8--8--8--8--8--8--8--8--8--
--8--8--8--8--8--8--8--8--8--8--8--8--8--8--8--8--
--6--6--6--6--6--6--6--6--6--6--6--6--6--6--6--6--
--6--6--6--6--6--6--6--6--6--6--6--6--6--6--6--6--


------
CHORUS (Legalizar, legalizar,...)
------


Tocar lo mismo que en Intro


-----------
POST-CHORUS
-----------


1)


------
------
------
--7>--
--7>--
--5>--

-----------------0>--
-----------------0>--
---------------------
--8--7--8--8--8--7>--
--6--5--6--6--6--7>--
-----------------5>--
  PM...........

--------------------------------------------------
--------------------------------------------------
--7--7--7--7--7--7--7--7--8--8--8--8--8--8--8--8--
--7--7--7--7--7--7--7--7--8--8--8--8--8--8--8--8--
--5--5--5--5--5--5--5--5--6--6--6--6--6--6--6--6--
--5--5--5--5--5--5--5--5--6--6--6--6--6--6--6--6--


2)


----------------------------------------------------
----------------------------------------------------
------10--9--8--------------------10--9--8--7>--8>--
--7>--10--9--8--7>--10--9--8--7>--10--9--8--7>--8>--
--7>---8--7--6--7>--10--9--8--7>---8--7--6--5>--6>--
--5>---8--7--6--5>---8--7--6--5>---8--7--6--5>--6>--

--------------------------------------------
--------------------------------------------
------10--9--8--------------------10--9--8--
--7>--10--9--8--7>--10--9--8--7>--10--9--8--
--7>---8--7--6--7>--10--9--8--7>---8--7--6--
--5>---8--7--6--5>---8--7--6--5>---8--7--6--

--------------------------------------------------
--------------------------------------------------
--7--7--7--7--7--7--7--7--8--8--8--8--8--8--8--8--
--7--7--7--7--7--7--7--7--8--8--8--8--8--8--8--8--
--5--5--5--5--5--5--5--5--6--6--6--6--6--6--6--6--
--5--5--5--5--5--5--5--5--6--6--6--6--6--6--6--6--


------------------------------------------------------------
------------------------------------------------------------		   
AcordesyTabs.com © 2008 Acordes y Tablaturas para guitarra. Tabs and Chords for guitar. Aviso Legal - Contacto
El uso de este sitio está sujeto a la aceptación de los términos y condiciones (39 usuarios online)