tablaturas, partituras y acordes para guitarra
Busca por banda/artista:
 
y/o título de la canción:
A B C D E F G H I J K L M N O P Q R S T U V W X Y Z 0 1 2 3 4 5 6 7 8 9 / Top 100 tabs
Categorías
Usuarios
usuario:
Darse de alta
password:
Artistas más visitados
Publicidad
TOP acordes y tablaturas de Earshot


Hedstrong
de Earshot
Puntúa este acorde/tab:      
(0.5/5)
Reportar este acorde/tab
  Añadir a tus favoritos
  Imprimir
earshot 
Headstrong 
 
efectos: 
/:slider 
 
intro: 
E.------------------------------------------------------------ 
G.------------------------------------------------------------ 
B.------------------------------------------------------0----- 
D.--1/0-1/2-1/0-1/2-1/0-1/0-0---1/0-1/2-1/0-1/2-1/0-1/0------- 
A.------------------------------------------------------------ 
D.------------------------------------------------------------ 
 
 
 
E.------------------------------------------------------------ 
G.------------------------------------------------------------ 
B.------------------------------------------------------------ 
D.--1/0-1/2-1/0-1/2-1/0-1/0--0--1/0-1/2-1/0-1/2-1/0-1/0--5---- 
A.--1/0-1/2-1/0-1/2-1/0-1/0--0--1/0-1/2-1/0-1/2-1/0-1/0--5---- 
D.--1/0-1/2-1/0-1/2-1/0-1/0--0--1/0-1/2-1/0-1/2-1/0-1/0--5---- 
 
 
E.-------------------------------- 
G.-------------------------------- 
B.-------------------------------- 
D.---9-9-9-5-5-5-2-2-2-4-4-4------ 
A.---9-9-9-5-5-5-2-2-2-4-4-4------ 
D.---9-9-9-5-5-5-2-2-2-4-4-4------ 
 
 
E.----10----10---10---10---10---10---10---10---10---10--------- 
G.--8----8-----8----8----8----8----8----8----8----8------------ 
B.------------------------------------------------------------- 
D.------------------------------------------------------------- 
A.------------------------------------------------------------- 
D.------------------------------------------------------------- 
 
 
E.---------------------------------- 
B.---------------------------------- 
G.---------------------------------- 
D.--10-11-8-8-8-9------------------- 
A.--10-11-8-8-8-9------------------- 
D.--10-11-8-8-8-9-------------------
		   
AcordesyTabs.com © 2008 Acordes y Tablaturas para guitarra. Tabs and Chords for guitar. Aviso Legal - Contacto
El uso de este sitio está sujeto a la aceptación de los términos y condiciones (28 usuarios online)