tablaturas, partituras y acordes para guitarra
Busca por banda/artista:
 
y/o título de la canción:
A B C D E F G H I J K L M N O P Q R S T U V W X Y Z 0 1 2 3 4 5 6 7 8 9 / Top 100 tabs
Categorías
Usuarios
usuario:
Darse de alta
password:
Artistas más visitados
Publicidad
TOP acordes y tablaturas de East west


Wake
de East west
Puntúa este acorde/tab:      
(1.2/5)
Reportar este acorde/tab
  Añadir a tus favoritos
  Imprimir
Transcribed by: dohnelley 
Drop B Tuning. (B,F#,B,E,G#,C#) 
x x x = palm mutting 
 
Well I am 99% sure that this song is 100% correct. The tuning I got from 
Mikey Tubbs himself and I picked up the tabs at numerous concerts and 
listening to the CD. Enjoy. Buy East West's new CD. It's real good. 
 
Intro. Get timing from the song. 
------------------------------------------------------------------------------ 
------------------------------------------------------------------------------ 
-9--9--9--9------------------------------------------------------------------- 
-10-10-10-10---0--0--0-------------------------------------------------------- 
-9--9--9--9----0--0--0-------------------------------------------------------- 
---------------0--0--0-------------------------------------------------------- 
               x  x  x                                                         
 
Chorus #1. Palm muted the whole time with distortion bass. 
------------------------------------------------------------------------------ 
------------------------------------------------------------------------------ 
------------------------------------------------------------------------------ 
-5--0--3--0--2--0--1--0------------------------------------------------------- 
-5--0--3--0--2--0--1--0------------------------------------------------------- 
-5--0--3--0--2--0--1--0------------------------------------------------------- 
 x  x  x  x  x  x  x  x                                                        
 
Main Chorus. 
------------------------------------------------------------------------------ 
------------------------------------------------------------------------------ 
------------------------------------------------------------------------------ 
-5--3--2--1------------------------------------------------------------------- 
-5--3--2--1------------------------------------------------------------------- 
-5--3--2--1------------------------------------------------------------------- 
                                                                               
Chorus #3. 
------------------------------------------------------------------------------ 
------------------------------------------------------------------------------ 
------------------------------------------------------------------------------ 
-2--2--0--9--10--------------------------------------------------------------- 
-2--2--0--9--10--------------------------------------------------------------- 
-2--2--0--9--10--------------------------------------------------------------- 
                                                                               
Last part of song. Takes a while to master. 
------------------------------------------------------------------------------ 
------------------------------------------------------------------------------ 
------------9--9--9----------------------------------------------------------- 
-0-0-0-0-0--10-10-10---------------------------------------------------------- 
-0-0-0-0-0--9--9--9----------------------------------------------------------- 
-0-0-0-0-0-------------------------------------------------------------------- 
 x x x x x 
 
------------------------------------------------------------------------------ 
------------------------------------------------------------------------------ 
------------------------------------------------------------------------------ 
-5--0--3--0--2--0------------------------------------------------------------- 
-5--0--3--0--2--0------------------------------------------------------------- 
-5--0--3--0--2--0------------------------------------------------------------- 
 x  x  x  x  x
		   
AcordesyTabs.com © 2008 Acordes y Tablaturas para guitarra. Tabs and Chords for guitar. Aviso Legal - Contacto
El uso de este sitio está sujeto a la aceptación de los términos y condiciones (58 usuarios online)