tablaturas, partituras y acordes para guitarra
Busca por banda/artista:
 
y/o título de la canción:
A B C D E F G H I J K L M N O P Q R S T U V W X Y Z 0 1 2 3 4 5 6 7 8 9 / Top 100 tabs
Categorías
Usuarios
usuario:
Darse de alta
password:
Artistas más visitados
Publicidad
TOP acordes y tablaturas de Hamlet


Estás en: Inicio > Letra H > Acordes y tablaturas de Hamlet > Tierra de paco
Tierra de paco
de Hamlet
Puntúa este acorde/tab:      
(0.5/5)
Reportar este acorde/tab
  Añadir a tus favoritos
  Imprimir
GRUPO: Hamlet
 DISCO: Revolución 12.111
 TEMA : La Tierra De Paco
 Instrumento  : Bajo
 Tabulado por : David Fernández a.k.a Melankoly (melankoly@radikalboard.com)



La tierra de paco  ---- All fingered

G|-----------------------------------------------|
D|-----------------------------------------------|
A|-----------------------------------------------|   Este es el cuento del viejo...
E|-0-0-3-0-0-3-0-0-3-0-0-1-----------------------|

G|-----------------------------------------------|
D|-----------------------------------------------|
A|-----------------------------------------------|   Se escuchó 'acaso...   
E|-3>-1>-3>-1>---------3333-5-3333-5-3333-5------|

G|-------------|
D|-------------|  Pre-Chorus
A|-------------|
E|-3-0-3-0-5---|

G|----------------|
D|----------------|
A|----------------| Para dividir...
E|-3>-0>-3>-0>-5>-|

G|---------------|
D|---------------| No más dolor
A|---------------|
E|-3-3-2-3-2-3-3-|

G|-----------------------------------------------|
D|-----------------------------------------------|
A|-----------------------------------------------| Antes de 'se marchó...
E|-0-0--0-0--0-0--0-0--0-0--0-0--0-0-------------|

G|-----------------------------------------------|
D|-----------------------------------------------|
A|-----------------------------------------------|   Se marchó
E|-0-0-3-0-0-3-0-0-3-0-0-1-----------------------|

G|-----------------------------------------------|
D|-----------------------------------------------|  Iros despidiendo...
A|-----------------------------------------------|
E|-5555-3-2-0------------------------------------|


------> Podeis mandar vuestras sugerencias a madesmania.com		   
AcordesyTabs.com © 2008 Acordes y Tablaturas para guitarra. Tabs and Chords for guitar. Aviso Legal - Contacto
El uso de este sitio está sujeto a la aceptación de los términos y condiciones (48 usuarios online)