tablaturas, partituras y acordes para guitarra
Busca por banda/artista:
 
y/o título de la canción:
A B C D E F G H I J K L M N O P Q R S T U V W X Y Z 0 1 2 3 4 5 6 7 8 9 / Top 100 tabs
Categorías
Usuarios
usuario:
Darse de alta
password:
Artistas más visitados
Publicidad
TOP acordes y tablaturas de Elvis presley


Estás en: Inicio > Letra E > Acordes y tablaturas de Elvis presley > Good luck charm
Good luck charm
de Elvis presley
Puntúa este acorde/tab:      
(0.3/5)
Reportar este acorde/tab
  Añadir a tus favoritos
  Imprimir
Good Luck Gharm (BASS TAB) 
Elvis Presley 
 
       G |-------------------|-------------------|-------------------|-------------------| 
       D |-------------------|-------------------|-------------------|-------------------| 
       A |-------------------|---5---3---2---0---|-------2---5---2-5-|-------2---5---2-5-| 
       E |-0-5---3---2---0---|-------------------|---3---------------|---3---------------| 
             1   2   3   4       1   2   3   4       1   2   3   4       1   2   3   4 
  Uh-huh huh...         Uh-huh huh...       Uh-huh huh...           Oh hye... 
 
 
       G |-------------------|-------------------|-------------------|-------------------| 
       D |-------------------|-------2---5---2---|-------------------|-------4---7---4---| 
       A |-------2---5---2---|---3---------------|-------2---5---2---|---5---------------| 
       E |---3---------------|-------------------|---3---------------|-------------------| 
             1   2   3   4       1   2   3   4       1   2   3   4       1   2   3   4 
          Dont' want a four leaf clover        Don't want an old horse shoe 
 
      G |-------------------|-------------------|-------5---4-------|-------------------| 
      D |-------------------|-------2---5---2---|---------------7---|---5---------------| 
      A |-------2---5---2---|---3---------------|---5---------------|-------------------| 
      E |---3---------------|-------------------|-------------------|-------------------| 
            1   2   3   4       1   2   3   4       1   2   3   4       1   2   3   4 
         Want your kiss 'cause I just can't miss Whith a good luck charm like you  Come on and 
 
 
      G |-------------------|-------------------|-------------------|-------------------| 
      D |-------4---7---4---|-------4---7---7---|-------------------|-------------------| 
      A |---5---------------|---5---------------|-------2---5---2---|-------2---5---2---| 
      E |-------------------|-------------------|---3---------------|---3---------------| 
            1   2   3   4       1   2   3   4       1   2   3   4       1   2   3   4 
            be my little good luck charm Uh-huh huh     you sweet delight 
 
      G |-------------------|-------------------|-------------------|-------------------| 
      D |-------4---7---4---|-------4---7---7---|-------------------|-------4---7---4---| 
      A |---5---------------|---5---------------|-------4---7---4---|---5---------------| 
      E |-------------------|-------------------|---5---------------|-------------------| 
            1   2   3   4       1   2   3   4       1   2   3   4       1   2   3   4 
      I want a good luck charm a-hanging on my arm  To have,To have     To hold, to hold 
 
      G |-------------------|-------------------|-------------------|-------------------| 
      D |-------------------|-------------------|-------------------|-------2---5---2---| 
      A |-------2---5---2-5-|-------2---3---2-5-|-------2---5---2---|---3---------------| 
      E |---3---------------|---3---------------|---3---------------|-------------------| 
            1   2   3   4       1   2   3   4       1   2   3   4       1   2   3   4 
          Tonight                                  Don't want a silver dollar 
 
      G |-------------------|-------4---7---4---|-------------------|-------------------| 
      D |-------------------|---5---------------|-------------------|-------2---5---2---| 
      A |-------2---5---2---|-------------------|-------2---5---2---|---3---------------| 
      E |---3---------------|-------------------|---3---------------|-------------------| 
            1   2   3   4       1   2   3   4       1   2   3   4       1   2   3   4   
         Rabbit's foot on a string             The happiness in your warm caress 
  
      G |-------5---4-------|-------------------|-------------------|-------------------| 
      D |---------------7---|---5---------------|-------4---7---4---|-------4---7---4---| 
      A |-------------------|-------------------|---5---------------|---5---------------| 
      E |---5---------------|-------------------|-------------------|-------------------| 
            1   2   3   4       1   2   3   4       1   2   3   4       1   2   3   4   
       No rabbit's foot can bring   Come on and     be my little    good luck charm 
 
      G |-------------------|-------------------|-------------------|-------------------| 
      D |-------------------|-------------------|-------4---7---4---|-------4---7---4---| 
      A |-------2---5---2---|-------2---5---2---|---5---------------|---5---------------| 
      E |---3---------------|---3---------------|-------------------|-------------------| 
            1   2   3   4       1   2   3   4       1   2   3   4       1   2   3   4   
           Hu-huh huh you sweet delight    I want a good luck charm a-hanging on my arm 
 
      G |-------------------|-------------------|-------------------|-------------------| 
      D |-------------------|-------4---7---4---|-------------------|-------------------| 
      A |-------4---7---4---|---5---------------|-------2---5---2-5-|-------2---5---2-5-| 
      E |---5---------------|-------------------|---3---------------|---3---------------| 
            1   2   3   4       1   2   3   4       1   2   3   4       1   2   3   4   
      To have, to have    To hold, to hold       tonight 
 
       G |-------------------|-------------------|-------------------|-------------------| 
       D |-------------------|-------------------|-------------------|-------------------| 
       A |-------------------|---5---3---2---0---|-------2---5---2-5-|-------2---5---2-5-| 
       E |-0-5---3---2---0---|-------------------|---3---------------|---3---------------| 
             1   2   3   4       1   2   3   4       1   2   3   4       1   2   3   4 
  Uh-huh huh...         Uh-huh huh...       Uh-huh huh...           Oh hye... 
 
       G |-------------------|-------------------|-------------------|-------------------| 
       D |-------------------|-------------------|-------------------|-------------------| 
       A |-------------------|---5---3---2---0---|-------2---5---2-5-|-------2---5---2-5-| 
       E |-0-5---3---2---0---|-------------------|---3---------------|---3---------------| 
             1   2   3   4       1   2   3   4       1   2   3   4       1   2   3   4 
  Uh-huh huh...         Uh-huh huh...       Uh-huh huh...           tonight... 
 
       G |-------------------|-------------------|-------------------|-------------------| 
       D |-------------------|-------2---5---2---|-------------------|-------4---7---4---| 
       A |-------2---5---2---|---3---------------|-------2---5---2---|---5---------------| 
       E |---3---------------|-------------------|---3---------------|-------------------| 
             1   2   3   4       1   2   3   4       1   2   3   4       1   2   3   4 
         If I found a lucky penny                 I'd toss it across the bay 
 
      G |-------------------|-------------------|-------5---4-------|-------------------| 
      D |-------------------|-------2---5---2---|---------------7---|---5---------------| 
      A |-------2---5---2---|---3---------------|---5---------------|-------------------| 
      E |---3---------------|-------------------|-------------------|-------------------| 
            1   2   3   4       1   2   3   4       1   2   3   4       1   2   3   4 
         Your love is worth all the gold on earth No wonder   that  I  say       Come on and 
 
 
      G |-------------------|-------------------|-------------------|-------------------| 
      D |-------4---7---4---|-------4---7---7---|-------------------|-------------------| 
      A |---5---------------|---5---------------|-------2---5---2---|-------2---5---2---| 
      E |-------------------|-------------------|---3---------------|---3---------------| 
            1   2   3   4       1   2   3   4       1   2   3   4       1   2   3   4 
            be my little good luck charm Uh-huh huh     you sweet delight 
 
      G |-------------------|-------------------|-------------------|-------------------| 
      D |-------4---7---4---|-------4---7---7---|-------------------|-------4---7---4---| 
      A |---5---------------|---5---------------|-------4---7---4---|---5---------------| 
      E |-------------------|-------------------|---5---------------|-------------------| 
            1   2   3   4       1   2   3   4       1   2   3   4       1   2   3   4 
      I want a good luck charm a-hanging on my arm  To have,To have     To hold, to hold 
 
      G |-------------------|-------------------|-------------------|-------------------| 
      D |-------------------|-------------------|-------------------|-------------------| 
      A |-------2---5---2-5-|-------2---3---2-5-|-------------------|---5---3---2---0---| 
      E |---3---------------|---3---------------|-0-5---3---2---0---|------------------- 
            1   2   3   4       1   2   3   4       1   2   3   4       1   2   3   4 
          Tonight                        Uh-huh huh...         Uh-huh huh...          
 
       G |-------------------|-------------------|-------------------|-------------------| 
       D |-------------------|-------------------|-------------------|-------------------| 
       A |-------2---5---2-5-|-------2---5---2-5-|-------------------|-------------------| 
       E |---3---------------|---3---------------|-0-5---3---2---0---|---5---3---2---0---| 
             1   2   3   4       1   2   3   4       1   2   3   4       1   2   3   4 
       Uh-huh huh...        Oh hye...    Uh-huh huh...         Uh-huh huh...  
 
      G |-------------------|-------------------| 
      D |-------------------|-------------------| 
      A |-------2---5---2-5-|-------2---3---2-5-| 
      E |---3---------------|---3---------------| 
            1   2   3   4       1   2   3   4 
          Tonight                         		   
AcordesyTabs.com © 2008 Acordes y Tablaturas para guitarra. Tabs and Chords for guitar. Aviso Legal - Contacto
El uso de este sitio está sujeto a la aceptación de los términos y condiciones (32 usuarios online)