tablaturas, partituras y acordes para guitarra
Busca por banda/artista:
 
y/o título de la canción:
A B C D E F G H I J K L M N O P Q R S T U V W X Y Z 0 1 2 3 4 5 6 7 8 9 / Top 100 tabs
Categorías
Usuarios
usuario:
Darse de alta
password:
Artistas más visitados
Publicidad
TOP acordes y tablaturas de Elvis presley


Estás en: Inicio > Letra E > Acordes y tablaturas de Elvis presley > Jailhouse rock
Jailhouse rock
de Elvis presley
Puntúa este acorde/tab:      
(0.2/5)
Reportar este acorde/tab
  Añadir a tus favoritos
  Imprimir
JAILHOUSE ROCK 
As recorded by Elvis Presley 
(From the 2002 Album ELVIS 30 #1 HITS) 
 
Words and Music by Jerry Leiber & Mike StollerGtr I (Eb Ab Db Gb Bb Eb) - 'Scotty Moore - Rhythm / Lean clean electric' 
 
Intro                                         Verses 
  Q=164 
                                            $ 
 4/4 
  Gtr I 
  E Q.       W          +H     +E  Q.           W          +H     +E  Q. 
|--------||-----------|------------------||-||-----------|-----------------| 
|---4----||o-5--------|-(5)----(5)-4----o||-||o-5--------|-(5)----(5)-4----| 
|---3----||--4--------|-(4)----(4)-3-----||-||--4--------|-(4)----(4)-3----| 
|---5----||--6--------|-(6)----(6)-5-----||-||--6--------|-(6)----(6)-5----| 
|---6----||o-7--------|-(7)----(7)-6----o||-||o-7--------|-(7)----(7)-6----| 
|--------||-----------|------------------||-||-----------|-----------------| 
          |-Rhy Fig 1   end Rhy Fig 1  --| 
 
 
Rhy Fig 1 x2 
 
 
                           Chorus 
                            PM------------------------------| 
  E E Q  H      W           E E E E E E E E   E E E E E E E E 
|-------------|----------||-----------------|------------------| 
|-5-----------|----------||-----------------|------------------| 
|-4-----------|----------||-----------------|------------------| 
|-6-----------|----------||---------2-2-4-2-|---------2-2-4-2--| 
|-7-----------|----------||-0-0-4-4---------|-0-0-4-4----------| 
|-------------|----------||-----------------|------------------| 
 
 
  PM------------------------------------------------| 
  E E E E E E E E   E E E E E E E E   E E E E E E E E 
|-----------------|-----------------|-----------------| 
|-----------------|-----------------|-----------------| 
|-----------------|-----------------|-----------------| 
|-----------------|-----------------|---------4-4-6-4-| 
|---------2-2-4-2-|---------2-2-4-2-|-2-2-6-6---------| 
|-0-0-4-4---------|-0-0-4-4---------|-----------------| 
|-Riff A                 end Riff A-| 
 
                                     1.,2.,4.,D.S. 
                             To Coda 
  PM----------------------------------------------| 
  E E E E E E E E   E E E E E E E E   E E E E E E Q 
|-----------------|-----------------|-----------------|| 
|-----------------|-----------------|----------------o|| 
|-----------------|-----------------|-----------------|| 
|---------2-2-4-2-|-----------------|-----------------|| 
|-0-0-4-4---------|---------2-2-4-2-|---------2-2h4--o|| 
|-----------------|-0-0-4-4---------|-0-0-4-4---------|| 
 
 
                     Guitar Solo 
  3. 
  PM----------| 
  E E E E +E  Q  E    E  E  E  E  +E   E  E  E    +E   E  E  E  +E   E  Q 
|------------------||---12-12-12-(12)----12-12-|-(12)----12-12-(12)-12-12--| 
|------------------||----x--x--x----------x--x-|----------x--x-------x--x--| 
|------------------||---12-12-12-(12)-12-12-12-|-(12)-12-12-12-(12)-12-12--| 
|------------------||--------------------------|---------------------------| 
|------------------||--------------------------|---------------------------| 
|-0-4-4-4-(4)-4----||--------------------------|---------------------------| 
 
 
  E  Q      E      +E   E  E    E 
|---------------------------------| 
|----9------9------(9)--9-------9-| 
|---12b13--12b13==(12)r---12b13---| 
|---------------------------------| 
|---------------------------------| 
|---------------------------------| 
 
 
  +E   E  E     E       +E    E  e E   +E  E E E +E  E e E 
|----------------------------------7-|-(7)-----------------| 
|-(9)--9--9-----9-------(9)---9--9-7-|-(7)---------------5-| 
|-----12-12b13-12pb13==(12)r-12-12-8-|-(8)-----8-(8)-----6-| 
|----------------------------------9-|-(9)-9-9-9-(9)-9-9-7-| 
|------------------------------------|-----9-9-9-(9)-9-9-7-| 
|------------------------------------|-----7-7-7-(7)-7-7-5-| 
 
 
                                                        D.S. al Coda 
  +E  E E E +E  E q    E E E E E E E E   E E E E E Q. 
|--------------------|-------------2-2-|-0-0-0-0--------|| 
|-(5)----------------|-----2-2-----2-2-|-0-0-0-0---4----|| 
|-(6)----------------|-1-1-2-2-1-1-2-2-|-1-1-1-1---3----|| 
|-(7)-7-7-7-(7)-7-7--|-2-2-2-2-2-2-2-2-|-2-2-2-2---5----|| 
|-(7)-7-7-7-(7)-7-7--|-2-2-----2-2-----|-2-2-2-2---6----|| 
|-(5)-5-5-5-(5)-5-5--|-0-0-----0-0-----|-0-0-0-0--------|| 
 
 
 
  & 
Riff A (1st bar) 
 
Outro 
Riff A x5 to Fade 		   
AcordesyTabs.com © 2008 Acordes y Tablaturas para guitarra. Tabs and Chords for guitar. Aviso Legal - Contacto
El uso de este sitio está sujeto a la aceptación de los términos y condiciones (31 usuarios online)