tablaturas, partituras y acordes para guitarra
Busca por banda/artista:
 
y/o título de la canción:
A B C D E F G H I J K L M N O P Q R S T U V W X Y Z 0 1 2 3 4 5 6 7 8 9 / Top 100 tabs
Categorías
Usuarios
usuario:
Darse de alta
password:
Artistas más visitados
Publicidad
TOP acordes y tablaturas de Elvis presley


Estás en: Inicio > Letra E > Acordes y tablaturas de Elvis presley > Mean woman blues
Mean woman blues
de Elvis presley
Puntúa este acorde/tab:      
(0.3/5)
Reportar este acorde/tab
  Añadir a tus favoritos
  Imprimir
Elvis Presley:  
Mean Woman Blues 
             mean woman blues 
 
 intro  c 10x         s 
---------8--|------10/-11-10----|    
---------8--|-------9/-10--9----|  
---------9--|------10/-11-10----|    
--------10--|-------9/-10--9----|  
------------|------10/-11-10----| 
---------------------------------|  
                                                             riff 1 3x 
--------------| 
--------------| 
--------------|  ( clapping thing) igot awoman mean as   
--------------| she can be 
--------3-----|  
---333--------| 
         
 c riff 2                     f riff 3               
-------------------- |--------------------------  
---------------------|--------------------------    
-------0-2-------0-2-| -------------------------  
-----2---------2-----| -------10-12-13-12-10-12-    
---3---------3-------| -8--12-------------------  
---------------------| -------------------------  
ooo ooo                i got 
                  G 
c riff)))))     --------------------|  
              ----------------------| 
              ----------------------| SOME TIMES 
              ----------12---14--12-|  
              --10---14-------------|   
              ----------------------|                  
                                                             F  
------------------------|     
------------------------|  
------------------------| 
--------10---12--10-----|  
--9--12-----------------|  
------------------------                                                           ALMOST MEAN    AS        ME  -       C RIFF  
 
TACET BLACK CAT UP AND DIED OF FRIGHT CUSE 
SHE CROSSED HIS PATH  
 
RIFFZ             
---------------  
---------------  
---------------  
---------------  
-3--1--0-------  
-----------3---  
LAST NIGHT  
           F 
------------------------------|             
------------------------------|   
------------------------------|  
------------------------------|  
---5--3--5-------5--3---5-----|  
1--------------1--------------| 
OH I GOT A WOMAN AS MEAN AS SHE CAN   
 
-----------------------------|  
-----------------------------|  
-----------------------------|  
-----------------------------|  
----12--10-12---12--10--12---|  
--8-----------8--------------| 
BE 
          G7 
----------------------------|  
----------------------------|  
----------------------------|  
----------------------------|  
-------------5--------------|  
----3----7--------7---------|  
 
SOME TIMES I THINK SHES  
    F 
-------------------|  
-------------------|  
-------------------|  
-------------------|  
---------3---------|  
-1----5------5-----|  
 
ALLMOST MEAN AS ME  
         C 
---------------------------------| 
---------------------------------| 
---------------------------------| 
---------------------------------| 
---------10---------------10-----|  
---8--12----12----8---12------12-|  
        
  GUITAR OUT                      
 SHE KISSED SO HARD SHE BRUISE MY LIPS  
HURTS SO GOOD MY HEART(RIFF Z) JUST FLIPS 
                    
                       
   F 
OH I GOT A WOMAN MEAN AS SHE CAN BE(C RIFF) 
 
G7                       F               C 
SOME TIMES I THINK SHES ALLMOST MEAN AS ME 
 
(RIFF 1 3X   RIFFZ  THEN  SCOTTY GETS IT SOLO) 
 
GUITAR OUT 
THE STRANGEST GAL  I EVER HAD NEVER HAPPY   
 
(RIFF Z) UNLESS SHES MAD  CHORUS---- SOLO 
 
GUITAR OUT 
SHE MAKES LOVE WITH OUT A SMILE    
 
OH HOT DOG(RIFF Z)THAT DRIVES ME WILD 
 CHORUS--------------END 
 
 
 
THIS SONG IS BUTCHERD SO FIX IT UP IF YOU CAN ALLS I HAD
WAS MY TWO EARS TO  TAB THIS  HAVE  FUN
		   
AcordesyTabs.com © 2008 Acordes y Tablaturas para guitarra. Tabs and Chords for guitar. Aviso Legal - Contacto
El uso de este sitio está sujeto a la aceptación de los términos y condiciones (48 usuarios online)