tablaturas, partituras y acordes para guitarra
Busca por banda/artista:
 
y/o título de la canción:
A B C D E F G H I J K L M N O P Q R S T U V W X Y Z 0 1 2 3 4 5 6 7 8 9 / Top 100 tabs
Categorías
Usuarios
usuario:
Darse de alta
password:
Artistas más visitados
Publicidad
TOP acordes y tablaturas de Elvis presley


Estás en: Inicio > Letra E > Acordes y tablaturas de Elvis presley > Return to sender
Return to sender
de Elvis presley
Puntúa este acorde/tab:      
(0.5/5)
Reportar este acorde/tab
  Añadir a tus favoritos
  Imprimir
Standard Tuning: EADG 
Tabbed by: Lucien Farzan 

Listen good to the song for the timing and groove. 
Have Fun! 

  
Intro 
|-----------5------------5---------—-----| 
|----5-8-5----6-8-5----6---6--88-6-55-8--| 
|--6-----------------8-------------------| 
|----------------------------------------| 

Part 1 
|-----------5------------5----------------------5------------5--------| 
|----5-8-5----6-8-5----6---6--8-6-5-8----5-8-5----6-8-5----6---6------| 
|--6-----------------8-----------------6-----------------8-------5-6--| 
|---------------------------------------------------------------------| 

Part 2 
|--------------------------------------------------------------------------| 
|-----------8-6-5-8-----------8-6-5-8-----------8-6-5-8--------------------| 
|----3-6-3-------------3-6-3-------------3-6-3-------------3-6-3--6-4-3-6--| 
|--4-----------------4-----------------4-----------------4-----------------| 

|------------------------------------------------------------------------------| 
|-----------8-6-5-8----------------------7-10-7----7-10-7-----7-10-7--8-6-5-8--| 
|----3-6-3-------------3-6-3--6-4-3-6--8---------8---------88------------------| 
|--4-----------------4---------------------------------------------------------| 

Part 1a 
|-----------5------------5----------------------5------------5--------| 
|----5-8-5----6-8-5----6---6--8-6-5-8----5-8-5----6-8-5----6---6------| 
|--6-----------------8-----------------6-----------------8-------5-6--| 
|---------------------------------------------------------------------| 

Part 2a 
|--------------------------------------------------------------------------| 
|-----------8-6-5-8-----------8-6-5-8-----------8-6-5-8--------------------| 
|----3-6-3-------------3-6-3-------------3-6-3-------------3-6-3--6-4-3-6--| 
|--4-----------------4-----------------4-----------------4-----------------| 

|---------------------------------------------------------------------| 
|-----------8-6-5-8------------------------7-10-7----7-10-7-----------| 
|----3-6-3-------------3-6-3-----3-66-3--8---------8---------8--6-63--| 
|--4-----------------4--------44--------------------------------------| 

Outro 
|--------------------------------------------------------------------------| 
|-----------8-6-5-8-----------8-6-5-8-----------8-6-5-8--------------------| 
|----3-6-3-------------3-6-3-------------3-6-3-------------3-6-3--6-4-3-6--| 
|--4-----------------4-----------------4-----------------4-----------------| 

|--------------------------------------------------------------------------| 
|-----------8-6-5-8-----------8-6-5-8-----------8-6-5-8-----------8-6-5-8--| 
|----3-6-3-------------3-6-3-------------3-6-3-------------3-6-3-----------| 
|--4-----------------4-----------------4-----------------4-----------------| 


For corrections and suggestions mail me at: lfarzan@planet.nl
		   
AcordesyTabs.com © 2008 Acordes y Tablaturas para guitarra. Tabs and Chords for guitar. Aviso Legal - Contacto
El uso de este sitio está sujeto a la aceptación de los términos y condiciones (21 usuarios online)