tablaturas, partituras y acordes para guitarra
Busca por banda/artista:
 
y/o título de la canción:
A B C D E F G H I J K L M N O P Q R S T U V W X Y Z 0 1 2 3 4 5 6 7 8 9 / Top 100 tabs
Categorías
Usuarios
usuario:
Darse de alta
password:
Artistas más visitados
Publicidad
TOP acordes y tablaturas de Elvis presley


What'd i say
de Elvis presley
Puntúa este acorde/tab:      
(0.2/5)
Reportar este acorde/tab
  Añadir a tus favoritos
  Imprimir
What'd I Say 
------------ 
    Standard tuning. 
Intro: 
     E 
e |  | ---------------------------------------------------- |  
B |  | ---------------------------------------------------- |  
G |  | ---------------------------------------------------- |  
D |  | --------0--2---------0--2--------0--2---------0--2-- |  
A |  | -----2-----------2-2----------2-----------2-2------- |  
E |  | --0-----------0------------0-----------0------------ |  
     A                       E 
e |  | ---------------------------------------------------- |  
B |  | ---------------------------------------------------- |  
G |  | --------0--2---------0--2--------------------------- |  
D |  | -----2-----------2-2-------------0--2---------0--2-- |  
A |  | --0-----------0---------------2-----------2-2------- |  
E |  | ---------------------------0-----------0------------ |  
     B7          A           E 
e |  | --------------------------------------------------- |  
B |  | --------------------------------------------------- |  
G |  | --------2--4--------0--2--------------------------- |  
D |  | -----4-----------2--------------0--2---------0--2-- |  
A |  | --2-----------0--------------2-----------2-2------- |  
E |  | --------------------------0-----------0------------ |  


       E7 
    1. Hey mama, don't you treat me wrong, 
       E7 
       come and love your daddy all night long, 
           A7           E7        B7            A7         E7 
       all right, hey, hey, all right now. 
       E7 
    2. See the girl with the diamond ring, 
       E7 
       She knows how to shake that thing, 
           A7           E7             B7            A7             E7 
       all right, hey, hey, mmm , all right now. 
    E7 
    Ahhh, Ohh, Ahhh, Ohh, Ahhh, Ohh, Ohh 
                    E7 
    Make me feel so good, make me feel so good right now, 
                    A7                     E7 
    make me feel so good, make me feel so good right now, 
                    B7    A7               E7 
    make me feel so good, make me feel so good. 

Página 1



    Mmm , see the girl with the red dress on, 
    she can do the dog all night long, 
    All right, hmm , what'd I say, tell me what'd I say. 
    Tell me what'd I say, tell me what'd I say right now, 
    Tell me what'd I say, tell me what'd I say right now, 
    Tell me what'd I say, tell me what'd I say. 
    Ahhh, Ohh, Ahhh, Ohh, Ahhh, Ohh, Ohh. 
    It's all right, It's all right right now, Baby, it's all right now
 		   
AcordesyTabs.com © 2008 Acordes y Tablaturas para guitarra. Tabs and Chords for guitar. Aviso Legal - Contacto
El uso de este sitio está sujeto a la aceptación de los términos y condiciones (31 usuarios online)