tablaturas, partituras y acordes para guitarra
Busca por banda/artista:
 
y/o título de la canción:
A B C D E F G H I J K L M N O P Q R S T U V W X Y Z 0 1 2 3 4 5 6 7 8 9 / Top 100 tabs
Categorías
Usuarios
usuario:
Darse de alta
password:
Artistas más visitados
Publicidad
TOP acordes y tablaturas de Elvis presley


Estás en: Inicio > Letra E > Acordes y tablaturas de Elvis presley > Your cheatin' heart
Your cheatin' heart
de Elvis presley
Puntúa este acorde/tab:      
(0.7/5)
Reportar este acorde/tab
  Añadir a tus favoritos
  Imprimir
Standard tuning. 
 
       Intro: 
 
  e |  | --10--10--12--12--10--10- 
  B |  | --10--10--12--12--10--10- 
  G |  | ------------------------- 
  D |  | ------------------------- 
  A |  | ------------------------- 
  E |  | ------------------------- 
 
     -/9---9---9---8--7------ 
     -/10--10--10--9--8--/10- 
     --------------------/11- 
     ------------------------ 
     ------------------------ 
     ------------------------ 
 
     -------------------- |  |  
     -8--7------------7-- |  |  
     -9--7------7-----7-- |  |  
     -------/9-----9----- |  |  
     -------------------- |  |  
     -------------------- |  |  
 
 
       Riff 1:  
 
         D 
    e |  | -------------------------- |  |  
    B |  | --------10-10-12b---10-10- |  |  
    G |  | -------------------------- |  |  2x 
    D |  | --12-12------------------- |  |  
    A |  | -------------------------- |  |  
    E |  | -------------------------- |  |  
 
         G                                  
    e |  | ------------------- |  |  
    B |  | ------3-3-5b---3-3- |  |  
    G |  | ------------------- |  |  2x 
    D |  | --5-5-------------- |  |  
    A |  | ------------------- |  |  
    E |  | ------------------- |  |  
 
         A 
    e |  | ------------------- |  |  
    B |  | ------5-5-7b---5-5- |  |  
    G |  | ------------------- |  |  2x 

Página 1



    D |  | --7-7-------------- |  |  
    A |  | ------------------- |  |  
    E |  | ------------------- |  |  
 
 
 
                  Riff 1                      
                   D                   G       
    Your cheatin' heart will make you weep 
                   A              D 
    You'll cry and cry and try to sleep 
                    D                    G 
    But sleep won't come the whole night through 
                  A                  D 
    Your cheatin' heart will tell on you 
 

                    G                 D 
    When tears come down like falling rain 
                E                  A 
    You'll toss around and call my name 
                           D                    G 
    You're gonna walk that floor the way that I do 
                  A                  D 
    Your cheatin' heart will tell on you 
 
    When tears come down like falling rain 

    You'll toss around and call my name 

    You're gonna walk that floor just the way that I do 

    Your cheatin' heart will tell on you 
 
    Solo: 
 
    When tears come down like falling rain 

    You'll toss around and call my name 

    You're gonna walk that floor just the way that I do 

    Your cheatin' heart will tell on you 
                  A                  D 
    Your cheatin' heart will tell on you 
                  A                  D 
    Your cheatin' heart will tell on you
 		   
AcordesyTabs.com © 2008 Acordes y Tablaturas para guitarra. Tabs and Chords for guitar. Aviso Legal - Contacto
El uso de este sitio está sujeto a la aceptación de los términos y condiciones (47 usuarios online)