tablaturas, partituras y acordes para guitarra
Busca por banda/artista:
 
y/o título de la canción:
A B C D E F G H I J K L M N O P Q R S T U V W X Y Z 0 1 2 3 4 5 6 7 8 9 / Top 100 tabs
Categorías
Usuarios
usuario:
Darse de alta
password:
Artistas más visitados
Publicidad
TOP acordes y tablaturas de Pearl Jam


Estás en: Inicio > Letra P > Acordes y tablaturas de Pearl Jam > Yelllow Ledbetter
Yelllow Ledbetter
de Pearl Jam
Puntúa este acorde/tab:      
(0.4/5)
Reportar este acorde/tab
  Añadir a tus favoritos
  Imprimir
artist: Pearl Jam
Song:yellow ledbetter
email:m3slide@msn.com



E|-----------------9----------------9p7---------7--9---7p5------|
B|-----------------9---------------------7------7--7---5--------|
G|------------9----11p9--------------------8----8--8---6----6---|
D|-----9------9-----------11----------------9--9--9---7----7---|
A|-----9h11-----------------------------------------------------|
E|--0---------------------------5/7-----------------------------|

 |-----5h7--5---5h7p5-------------12/14---12p9------------------|
 |-----5---------------5----------12/14---12--------------------|
 |-----6------------------6----------------------11------------|
 |-----7--------------------------------------------------------|
 |--------------------------------------------------------------|
 |----------------------------0---------------------------------|

 |-----------------9--------------------9p7--9--7-----9p7--9----|
 |-----------------9-------------------------7--7-----7----7----|
 |------------9----11--9-----------8-8-------------8------------|
 |-----9------9-----------11------------------------------------|
 |-----9h11-----------------------------------------------------|
 |--0---------------------------7-------------------------------|

 |--7p5--------5------------------12/19-------------------------|
 |--5-----5-----------5h7p5-------12/19-------------------------|
 |--6-----6h7-----7---6-----------------------------------------|
 |--------------------------------------------------------------|
 |--------------------------------------------------------------|
 |----------------------------0-----------12		   
AcordesyTabs.com © 2008 Acordes y Tablaturas para guitarra. Tabs and Chords for guitar. Aviso Legal - Contacto
El uso de este sitio está sujeto a la aceptación de los términos y condiciones (25 usuarios online)