tablaturas, partituras y acordes para guitarra
Busca por banda/artista:
 
y/o título de la canción:
A B C D E F G H I J K L M N O P Q R S T U V W X Y Z 0 1 2 3 4 5 6 7 8 9 / Top 100 tabs
Categorías
Usuarios
usuario:
Darse de alta
password:
Artistas más visitados
Publicidad
TOP acordes y tablaturas de Jethro tull


Up to me
de Jethro tull
Puntúa este acorde/tab:      
(0.3/5)
Reportar este acorde/tab
  Añadir a tus favoritos
  Imprimir

September 14, 2001
Jethro Tull-Up To Me
Aqualung

I'm doing Up To Me by Jethro Tull.

Intro

E--------------------------------------------------------------------------
B--------------------------------------------------------------------------
G--------------------------------------------------------------------------
D--2-2-2-0--0-2---2-2-2-0---0-2------2-2-2-0---0-2-----2-2-2---------------
A----------2--------------2------------------2------------------1-1-1-0----
E------------------------------------------------------------3-------------

Riff. 1

E-----------------------------------------
B-----------------------------------------
G-----------------------------------------
D--2-2-2-0--0-2-------2-2-2---------------
A----------2-------------------1-1-1-0----
E---------------------------3-------------


Em                         D
Take You to the cinema and leave you in a Wimpy Bar-
C                                    Am              DF#
you tell me that we've gone far- come running up to me.
Em                               D    
Make the scene at Cousin Jack's- Leave him to put the bottles back-
C                                 Am                       DF#  
Mends his glasses that I cracked- Well that's one  up to me.

Riff. 1

Em                          D
Buy a silver cloud to ride- pack the tennis club inside-
C                                Am                  DF#
trouser cuffs hung much to wide- well it was up to me.
Em                          D
Tyres down on your bicycle- your nose feels like an icicle-
C                                 Am              DF#
the yellow fingered smoky girl is looking up to me.

Riff. 1

Well i'm a common working man with half of bitter- bread and jam
                                                                         C       Em 
and if it pleases me I'll put one on you man- when  the copper fades away.

Riff.1

Em                                  D
The rainy season comes to pass- the day-glo pirate sinks at last-
C                                 Am                  DF#
and if I laughed a bit to fasted. Well it was up to me.
Em                         D
Take you to the cinema and leave you in a Wimpy Bar-
C                                        Am              DF#
you tell me that we've gone to far- come running up to me.

Riff. !







		   
AcordesyTabs.com © 2008 Acordes y Tablaturas para guitarra. Tabs and Chords for guitar. Aviso Legal - Contacto
El uso de este sitio está sujeto a la aceptación de los términos y condiciones (20 usuarios online)